Pink Floyd - In The Flesh Chords & Tabs

 

In The Flesh Chords & Tabs

Pink Floyd Chords & Tabs

Version: 4 Type: Tab 0 ratings
1 star 2 stars 3 stars 4 stars 5 stars
comments

In The Flesh Tab

In the Flesh
Pink Floyd
The Wall

intro:

|-----------------------------------------------------0-
|-----------------------------------------8-----3-----0-
|-----------------------------------------7-----2-------
|-------------------------------------------------------
|-------------------------------------------------------
|-0-------2-------3-------0-----2---3~~~~---------------

|---------0-----------0--------------------------------------
|-----------3-----------3------------------------------------
|-2b(4)-0-----2>(4)-0-----2>(4)-2-0--------------------------
|-----------------------------------2-0----------------------
|---------------------------------------2-1-0---------2~~~~~-
|---------------------------------------------3>(4)p0--------

|-----------------------------------------------------------
|-3-------5-------6-------5-------3-------5-------6-------8-
|-2-------4-------5-------4-------2-------4-------5-------7-
|-0-------0-------0-------0-------0-------0-------0-------0-
|-----------------------------------------------------------
|-----------------------------------------------------------

|----------------------------------------------------------------
|----------------------------------------------------------------
|----------------------------------------------------------------
|----------------------------------------------------------------
|-0-----2pb(4)-----2-----0-----------------xx-4pb(5)-----4-----2-
|----------------------------2pb(4)---2----xx--------------------

|----------------------------------------------------------------
|----------------------------------------------------------------
|----------------------------------------------------------------
|-2--------------------------------------------------------------
|-0-----2pb(4)-----2-----0-----------------xx-4pb(5)-----4-----2-
|----------------------------2pb(4)---2----xx--------------------
[ Tab from: http://www.guitartabs.cc/tabs/p/pink_floyd/in_the_flesh_tab_ver_4.html ]
|---------------------------------------------------------------------
|---------------------------------------------------------------------
|---------------------------------------------------------------------
|-2-------------------------------------------------------------------
|-0-----2pb(4)-----2-----0-----1---2-----4pb(5)-----4-----2-----3---4-
|---------------------------------------------------------------------

|------------------------------
|------------------------------
|------------------------------
|------------------------------
|-5pb(7)-----5-----4-----------
|------------------------0-----

pre-verse and verse

|-------------------------------2-----------2-----
|-------2-----------2---------3---3-------3---3---
|-----2---2-------2---2-----2-------2---2-------2-
|---2-------2---2-------2-0-----------0-----------
|-0-----------0-----------------------------------
|-------------------------------------------------

|-------------------------------2-----------2-----
|-------2-----------2---------3---3-------3---3---
|-----2---2-------2---2-----2-------2---2-------2-
|---2-------2---2-------2-0-----------0-----------
|-0-----------0-----------------------------------
|-------------------------------------------------

|-------------------------------------------------
|-------2-----------2-----------3-----------3-----
|-----2---2-------2---2-------4---4-------4---4---
|---2-------2---2-------2---4-------4---4-------4-
|-0-----------0-----------2-----------2-----------
|-------------------------------------------------

|-------------------------------0-----------0-----
|-------5-----------5-------------0-----------0---
|-----6---6-------6---6-------1-----1-----1-----1-
|---6-------6---6-------6---2-----------2---------
|-4-----------4-----------------------------------
|-------------------------0-----------0-----------

when the lyrics are finished, play the intro again and finish with
the following chords (listen for rhythm):

|-------------
|-------------
|-------------
|-2-----7-----
|-2-----7-----
|-0-----5-----
Comments