Pink Floyd - In The Flesh Chords & Tabs

 

In The Flesh Chords & Tabs

Pink Floyd Chords & Tabs

Version: 3 Type: Tab 6 ratings
1 star 2 stars 3 stars 4 stars 5 stars
comments

In The Flesh Tab

   
Song: In The Flesh
Band: Pink Floyd
Tabbed by: SpRiNgWaFfLe [springwaffle@comcast.net]

                           G   D    E
e-----------------------------------0--
b--------------------------8\3-3----0--
g--------------------------7\2-2----1--
d-----------------------------------2--
a----------------0--2-3-------------2--
e-0-0----2---3----------------------0--

e------0--------0--------------------------
b----0---3----0---3------------------------
g-2b-------2b-------2b-2-0-----------------
d--------------------------2-0-----------2-
a------------------------------2-1-0-------
e------------------------------------3-0---

  D   E   F   E   D   E   F   G
e-2---4---5---4---2---4---5---7---
b-3---5---6---5---3---5---6---8---
g-2---4---5---4---2---4---5---7---
d---------------------------------
a---------------------------------
e---------------------------------

  Or like this:

  D   E   F    E   D   E   F    G
e----------------------------------
b----------------------------------
g-7---9---10---9---7---9---10---12-
d-7---9---10---9---7---9---10---12-
a-5---7---8----7---5---7---8----10-
e----------------------------------

e||---------------------------------||
b||.-------------------------------.||
g||--2------------------------------||
d||--2-----------------xx-----------||
a||.-0--/4--2--0-------xx-/5--4--2-.||
e||---------------4-2--xx-----------||

e---------------------------------------------------------
b---------------------------------------------------------
g-2-------------------------------------------------------
d-2-----------------xx----------------x-----------------2-
a-0--/4--2--0--1-2--xx-/5--4--2--3-4--x-/7--5--4--------2-
e-------------------xx----------------x-----------12\0--0-

  E E E E   E E E A
e---------------------
b---------------------
g-----------------2---
d-2-2-2-2---2-2-2-2---
a-2-2-2-2---2-2-2-0---
e-0-0-0-0---0-0-0-----

Then if you're playing the version on disc one
don't play anything during the verse. 
If your playing the version on disc two play this:
[ Tab from: http://www.guitartabs.cc/tabs/p/pink_floyd/in_the_flesh_tab_ver_3.html ]
  A         x2     D         x2  A         x2  D         x2
e||--------------|-------2-----|-------------|-------2-----|
b||.-------2-----|-----3---3---|-------2-----|-----3---3---|
g||------2---2---|---2-------2-|-----2---2---|---2-------2-|
d||----2-------2-|-0-----------|---2-------2-|-0-----------|
a||.-0-----------|-------------|-0-----------|-------------|
e||--------------|-------------|-------------|-------------|

  A         x2  Bm        x2  C#m       x2  E          x2
e-------------|-------------|-------------|--------------||
b-------2-----|-------3-----|-------5-----|-------9-----.||
g-----2---2---|-----4---4---|-----6---6---|-----9---9----||
d---2-------2-|---4-------4-|---6-------6-|---9-------9--||
a-0-----------|-2-----------|-4-----------|-7-----------.||
e-------------|-------------|-------------|--------------||

  A         x2  D         x2  A         x2  D         x2
e-------------|-------2-----|-------------|-------2-----|
b-------2-----|-----3---3---|-------2-----|-----3---3---|
g-----2---2---|---2-------2-|-----2---2---|---2-------2-|
d---2-------2-|-0-----------|---2-------2-|-0-----------|
a-0-----------|-------------|-0-----------|-------------|
e-------------|-------------|-------------|-------------|

  A         x2  Bm        x2  C#m           C#m             E
e-------------|-------------|-------------|-------------------
b-------2-----|-------3-----|-------5-----|-------5-----------
g-----2---2---|-----4---4---|-----6---6---|-----6---6---------
d---2-------2-|---4-------4-|---6-------6-|---6-------------2-
a-0-----------|-2-----------|-4-----------|-4---------------2-
e-------------|-------------|-------------|-----------12\0--0-

Then for both versions play this again:

e||---------------------------------||
b||.-------------------------------.||
g||--2------------------------------||
d||--2-----------------xx-----------||
a||.-0--/4--2--0-------xx-/5--4--2-.||
e||---------------4-2--xx-----------||

e---------------------------------------------------------
b---------------------------------------------------------
g-2-------------------------------------------------------
d-2-----------------xx----------------x-----------------2-
a-0--/4--2--0--1-2--xx-/5--4--2--3-4--x-/7--5--4--------2-
e-------------------xx----------------x-----------12\0--0-

  E  E E E E E E  A  AAAAAAAA    A
e-----------------------------------
b-----------------------------------
g-----------------2--22222222-e-----
d-2--2-2-2-2-2-2--2--22222222-t--7\-
a-2--2-2-2-2-2-2--0--00000000-c--7\-
e-0--0-0-0-0-0-0-----------------5\-
                              ^ Hit A a bunch of times
                                as fast as you can.
Comments