Pink Floyd - In The Flesh Chords & Tabs

 

In The Flesh Chords & Tabs

Pink Floyd Chords & Tabs

Version: 1 Type: Tab 2 ratings
1 star 2 stars 3 stars 4 stars 5 stars
comments

In The Flesh Tab

Artista: pink floyd (morzas version)
cancion: in the flesh
afinacion: estandar
instrumento: teclado arreglado para bajo
parte: verso
tabeador: zippo rippo (wo si)

es esta cosa 3 veces:

|-------6-----------6----|-------11----------11-----|
|-----7---7-------7---7--|-----12--12------12--12---|
|---7-------7---7-------7|---12------12--12------12-|
|-5-----------5----------|-10----------10-----------|

|-------6-----------6----|-------11----------11-----|
|-----7---7-------7---7--|-----12--12------12--12---|
|---7-------7---7-------7|---12------12--12------12-|
|-5-----------5----------|-10----------10-----------|
[ Tab from: http://www.guitartabs.cc/tabs/p/pink_floyd/in_the_flesh_tab.html ]
|-------6-----------6----|-----8-8---------8-8------|
|-----7---7-------7---7--|---------9-----------9----|
|---7-------7---7-------7|---9-------9---9-------9--|
|-5-----------5----------|-7-----------7------------|

|------10-10------------10|-10-----------9-9---------9-9-----|
|------------11-----------|----11------------9-----------9---|
|---11----------11---11---|-------11---9-------9---9-------9-|
|-9----------------9------|----------7-----------7-----------|


yo no se las weas de los tiempos asi que no van.
escucha la cancion y agarrai el tiempo, es re facil
el orden de la cancion es:

intro
parte feliz
verso
parte feliz
fill final

es muy facil hacerla, lo mas peludo es la parte del slide que no anotare aqui por motivos personales.

si encuentran que esta malo, no duden en hacermelo saber!
aunque creo que esta bien...
Comments