Pink Floyd - In The Flesh Chords & Tabs

 

In The Flesh Chords & Tabs

Pink Floyd Chords & Tabs

Version: 4 Type: Bass Tab 0 ratings
1 star 2 stars 3 stars 4 stars 5 stars
comments

In The Flesh Bass Tab

   
-------------------------------------------------------------------------------
			     IN THE FLESH? - PINK FLOYD
-------------------------------------------------------------------------------

Tabbed By : Flippo 
e-mail: flippo_id@yahoo.com

I find this tabbing more accurate than the ones I found, please correct me if
Im wrong. Corrections are welcome.

Tuning:Normal

E |------------------------|------------------|
LB|------------------------|------------------|
A |---------0-2-3-3/10-5-7-|-5-7-8-7-5-7-8-10-|
E |-0-0-2-3----------------|------------------|
[ Tab from: http://www.guitartabs.cc/tabs/p/pink_floyd/in_the_flesh_btab_ver_4.html ]
E |-------------------|
LB|-------------------|
A |-0-4-2-0-----5-4-2-| Repeats twice.
E |---------3-2-------|

E |---------------------------------------------|
LB|-----------------------5-3-2-0---------------|
A |-0-4-2-0-----5-4-2-3-4---------0-0-0-0-0-0-0-| Finish following drums
E |---------3-2---------------------------------| on Free String A.

No bass during verse.


| /  slide up
| \  slide down
| h  hammer-on
| p  pull-off
| ~  vibrato
| +  harmonic
| x  Mute note
===============================================================================
Comments