Pink Floyd - In The Flesh Chords & Tabs

 

In The Flesh Chords & Tabs

Pink Floyd Chords & Tabs

Version: 3 Type: Bass Tab 0 ratings
1 star 2 stars 3 stars 4 stars 5 stars
comments

In The Flesh Bass Tab

--------------------------------------------------
--------------------------------------------------
--------------------------------------------------
-0-0----2----3-44-55-6-6----5/105--7~------------

--------------------------------------------------
--------------------------------------------------
--------------------------------------------------
-0---2---3---2---0---2---3---4--------------------

--------------------------------------------------
--------------------------------------------------
--------------------------------------------------
-3/6---6/10---6/9---6/9---10-11-------------------

--------------------------------------------------
--------------------------------------------------
--------------------------------------------------
-6/10---3/6---3/6---8-----------------------------
[ Tab from: http://www.guitartabs.cc/tabs/p/pink_floyd/in_the_flesh_btab_ver_3.html ]
--------------------------------------------------
--------------------------------------------------
--------------------------------------------------
-6/10---3/6---3/6---11-12-------------------------

--------------------------------------------------
--------------------------------------------------
--------------------------------------------------
-6/10---3/6---7----8------------------------------

--------------------------------------------------
--------------------------------------------------
--------------------------------------------------
-6/10---3/6---3/6---12-13-------------------------

--------------------------------------------------
--------------------------------------------------
--------------------------------------------------
-6/10---3/6---3/6---13-14-------------------------

--------------------------------------------------
--------------------------------------------------
--------------------------------------------------
-6/10---3/6---5/4/7--3~-------0~------------------


No bass during the lyrics...but after the lyrics repeat all of the above and
then add two open notes to the end. Use distortion and tune however you think it
sounds best.
Comments