Pink Floyd - High Hopes Chords & Tabs

 

High Hopes Chords & Tabs

Pink Floyd Chords & Tabs

Version: 4 Type: Tab

High Hopes Tab

        Pink Floyd - High Hopes (solo).
        (tabbed by Damian Campa)
	The greatest part of one of the greatest Pink Floyd's songs.
	It's played an upper octave from the one on your guitar so you
	can handle it by using a "+1 octave" effect from your processor.

	Enjoy it ;)

	e/-------------------------------------------------------|
	B/-------------------------------------------------------|
	G/----------------8-7------------------------------------|
	D/---5-s-10//---------8-s-10--8---5-s-10-8-10------/3-/3-|
	A/-------------------------------------------------------|
	E/-------------------------------------------------------|
	"...forever and ever."

    e/--------------------------------------------------------|
    B/--------------------------------------------------------|
    G/-------------------------------------3-3-/-5-7-8-10-12~-|
    D/-3-/-5---3-/-1-1-------------- 5-5----------------------|
    A/------------------1-1-s-3~~-----------------------------|
    E/--------------------------------------------------------|

	e/-----10--11--13--15---18----20~~~-----------////-------|
	B/-13----------------------------------------------------|
	G/-------------------------------------------------------|
	D/-------------------------------------------------------|
	A/-------------------------------------------------------|
	E/-------------------------------------------------------|
        			       (delay and let it ring)

	e/-------------------------------------------------------|
	B/-------------------------------------------------------|
	G/--2-/-8-7----------------------------------------------|
	D/----------8-//----/5-3/5/-3-3/5/3--3/1-----------------|
	A/----------------------------------------1-1-/-3--------|
	E/-------------------------------------------------------|
[ Tab from: http://www.guitartabs.cc/tabs/p/pink_floyd/high_hopes_tab_ver_4.html ]
	e/-------------------------------------------------------|
	B/-------------------------------------------------------|
	G/---------3-3-3/5---5-/-8/7----7-/-10/8~~---12/10/12----|
	D/--3-/-5------------------------------------------------|
	A/-------------------------------------------------------|
	E/-------------------------------------------------------|

	e/--8---11--10---/6-//-----------------------------------|
	B/-------------------------------------------------------|
	G/------------------------12-/-8--10-/-5----5---8-7------|
	D/----------------------------------------------------9/-|
	A/-------------------------------------------------------|
	E/-------------------------------------------------------|

	e/-------------------------------------------------------|
	B/-------------------------------------------------------|
	G/--------------5--7--8--7--5-/-3--3-/-5~~~--------------|
	D/--3/5--5/8---------------------------------------------|
	A/-------------------------------------------------------|
	E/-------------------------------------------------------|

    e/--------------------------------------8~~----11-10-10//-|
    B/--------------------------------------------------------|
    G/--12-/-8---10-/-5---3--3/5------------------------------|
    D/-----------------------------3~~------------------------|
    A/--------------------------------------------------------|
    E/--------------------------------------------------------|

	e/--6--8---------8-8/11-8--6-8-8/11-10--8~~----(6)/8-(6)/8-|
	B/--------8/6/8--------------------------------------------|
	G/---------------------------------------------------------|
	D/---------------------------------------------------------|
	A/---------------------------------------------------------|
	E/---------------------------------------------------------|
						      (fade to end)