Pink Floyd - High Hopes Chords & Tabs

 

High Hopes Chords & Tabs

Pink Floyd Chords & Tabs

Version: 3 Type: Tab 0 ratings
1 star 2 stars 3 stars 4 stars 5 stars
comments

High Hopes Tab

This is one among my first tablatures I've made myself. I hope you will enjoy it :)


-----8--11/10--8/6----8-6-8--------------|
-4/8----------------8--------------------|
-----------------------------------------|
-----------------------------------------|
-----------------------------------------|
-----------------------------------------|


------------------------------------------|
-8/6--6-8-6-4---------------88------------|
--------------5-3-5----3-5----------------|
------------------------------------------|
------------------------------------------|
------------------------------------------|


-8-10-11-13-15^---20-18-20-18-20-18-20^---|
------------------------------------------|
------------------------------------------|
------------------------------------------|
------------------------------------------|
------------------------------------------|

-20/8----10/11-10-6-----------------------|
-------8------------8---------------------|
------------------------------------------|
------------------------------------------|
------------------------------------------|
------------------------------------------|

[ Tab from: http://www.guitartabs.cc/tabs/p/pink_floyd/high_hopes_tab_ver_3.html ]
------------------------------------------|
-6-8-6--8-6-------------------------------|
------------8-7---------------------------|
----------------8-10----------------------|
------------------------------------------|
------------------------------------------|


-----6---8--10/11/10--11/13/11-13/15/13-15-|
-6/8---8-----------------------------------|
-------------------------------------------|
-------------------------------------------|
-------------------------------------------|
-------------------------------------------|


-20-23-22-18/8---15-11-13-8--8-11-10-6----|
---------------------------------------8--|
------------------------------------------|
------------------------------------------|
------------------------------------------|
------------------------------------------|

-----8-10-11-10-8-6-8------15-11-13-8-----|
-6/8--------------------------------------|
------------------------------------------|
------------------------------------------|
------------------------------------------|
------------------------------------------|


-6-8------------20-23-22--18-20-15/13/15--|
-----6--6-8-6-----------------------------|
------------------------------------------|
------------------------------------------|
------------------------------------------|
------------------------------------------|

After this the sound is slowly fading out...


Made by Warwicker

Do you have any questions or anything please contact me: smuakr@hotmail.com
Comments