Pink Floyd - Hey You Chords & Tabs

 

Hey You Chords & Tabs

Pink Floyd Chords & Tabs

Version: 3 Type: Tab 0 ratings
1 star 2 stars 3 stars 4 stars 5 stars
comments

Hey You Tab

   
                                     HEY YOU
                            As recorded by Pink Floyd
                         (From the 1979 Album THE WALL)



        Emadd9                 Bm                  Dsus2                  G
      0 2 4 0 0 0          7 9 9 7 7 7          x x 0 2 3 0          3 2 0 0 0 3

           D                    C                  BmII                  Am
      x x 0 2 3 2          x 3 2 0 1 0          x 2 4 4 3 2          x 0 2 2 1 0

          Em
      0 2 2 0 0 0

Gtr I (E A D G B E) - 'Acoustic w/flanger (see performance notes)'
Gtr II (E A D G B E) - 'Acoustic'
Gtr III (E A D G B E) - 'dist electric'
Gtr IV (E A D G B E) - 'dist electric'
Gtr V (E A D G B E) - 'dist electric'
Gtr VI (E A D G B E) - 'dist electric'

   Intro
    Q=54
   4/4
    Gtr I
    S S S S S S S S S S S S S S S S
||----------------------------------|
||o-7-----8-----8---7-----8-----8---|
||------9---9-----9-----9---9-----9-|
||----9-------9-------9-------9-----|
||o---------------------------------|
||----------------------------------|


 1.,2.,3.                            4.
  S S S S S S S S S S S S S S S S     S S S S S S S S S S S S Q
|-------5-----5---------5-----5----||-------5-----5---------5----||
|-5-------6-------5-------6-------o||-5-------6-------5-------6--||
|-----7-----7---7-----7-----7---7--||-----7-----7---7-----7------||
|---7---------------7--------------||---7---------------7--------||
|---------------------------------o||----------------------------||
|----------------------------------||----------------------------||


 Verse 1
                                   2/4
  S S S S S S S S S S S S S S S S   S S S S S S S S
|---------------------------------|-----------------|
|-7-----8-----8---7-----8-----8---|-7-----8-----8---|
|-----9---9-----9-----9---9-----9-|-----9---9-----7-|
|---9-------9-------9-------9-----|---9-------9-----|
|---------------------------------|-----------------|
|---------------------------------|-----------------|


 4/4
  S S S S S S S S S S S S S S S S   S S S S S S S S S S S S S S S S
|-------7-------7-------7-----7---|----------------------------------|
|-7---7-----7-----7-------7-------|-7-----8-----8---7-----8-----8----|
|---------7---7-------7-----7---7-|-----9---9-----9-----9---9-----9--|
|---9---------------9-------------|---9-------9-------9-------9------|
|---------------------------------|----------------------------------|
|---------------------------------|----------------------------------|


 2/4               4/4
  S S S S S S S S   S S S S S S S S S S S S S S S S
|-----------------|-------7-------7-------7-----7---|
|-7-----8-----8---|-7---7-----7-----7-------7-----7-|
|-----9---9-----7-|---------7---7-------7-----7-----|
|---9-------9-----|---9---------------9-------------|
|-----------------|---------------------------------|
|-----------------|---------------------------------|


                                   2/4
  S S S S S S S S S S S S S S S S   S S S  S S S S S
|-------5-----5---------5-----5---|------------------|
|-5-------7-------5-------7-------|-8--------7-----8-|
|-----7-----7---7-----7-----7---7-|-----7--------7---|
|---7---------------7-------------|---9--------7-----|
|---------------------------------|-------10---------|
|---------------------------------|------------------|


 4/4
  S  S S S S  S S S S  S S S S  S S S
|---------------------------------------|
|--------8------8----------8------8-----|
|-9----9---9------9-9----9---9------7---|
|---10-------10-------10-------10-------|
|---------------------------------------|
|---------------------------------------|


  Gtr II
  W
  S S S S S S S S S S S S S S S S
|-------7-----7---------5-----5---|
|-7---7---7-----7-5---5---5-------|
|-----------7---------------5---7-|
|---9---------------7-------------|
|---------------------------------|
|---------------------------------|


                                                               Emadd9
  W                                 H               Q       E. S
                                                               |
                                                               /

  S S S S S S S S S S S S S S S S   S S S S S S S S S S S S Q
|---------------------------------|-------5-----5---------5--------||
|-------8-----8---7-----8-----8---|-5-------6-------5-------6------||
|-9---9---9-----9-----9---9-----9-|-----7-----7---7-----7----------||
|---9-------9-------9-------9-----|---7---------------7------------||
|---------------------------------|--------------------------------||
|---------------------------------|--------------------------------||


 Verse 2
                                                     Bm
                                   2/4
  W                                 +Q..             S
  |                                  |               |
  /                                  /               /

  S S S S S S S S S S S S S S S S    S   S S S S S S S
|---------------------------------|--------------------|
|-7-----8-----8---7-----8-----8---|--7-------8-----8---|
|-----9---9-----9-----9---9-----9-|--------9---9-----7-|
|---9-------9-------9-------9-----|------9-------9-----|
|---------------------------------|--------------------|
|---------------------------------|--------------------|


                                   Emadd9
 4/4
  H.                       +E.     S   W
  |                         |      |   |
  /                         /      /   /

  S  S S S S S S S S S S S  S  S S S   S S S S S S S S S S S S S S S S
|--------7-------7-------7-------7---|----------------------------------|
|-7----7-----7-----7--------7--------|-7-----8-----8---7-----8-----8----|
|----------7---7-------7-------7---7-|-----9---9-----9-----9---9-----9--|
|----9---------------9---------------|---9-------9-------9-------9------|
|------------------------------------|----------------------------------|
|------------------------------------|----------------------------------|


                   Bm                                   Dsus2
 2/4                  4/4
  +Q..             S   H..                           +S S
   |               |   |                              | |
   /               /   /                              / /

   S   S S S S S S S   S   S S S S S S S S S S S S S  S S
|--------------------|---------7-------7-------7------7---|
|--7-------8-----8---|-7-----7-----7-----7-------7------7-|
|--------9---9-----7-|-----------7---7-------7-----7------|
|------9-------9-----|-----9---------------9--------------|
|--------------------|------------------------------------|
|--------------------|------------------------------------|


                                    G        D
                                   2/4
  W                                 Q        Q
  |                                 |        |
  /                                 /        /

  S S S S S S S S S S S S S S S S   S S S  S S S S S
|-------5-----5---------5-----5---|------------------|
|-5-------7-------5-------7-------|-8--------7-----8-|
|-----7-----7---7-----7-----7---7-|-----7--------7---|
|---7---------------7-------------|---9--------7-----|
|---------------------------------|-------10---------|
|---------------------------------|------------------|


  C                                    BmII
 4/4
  H.                          +E.       S
  |                            |        |
  /                            /        /

  S   S S S S  S S S S  S S S  S   S S  S
|-------------------------------------------|
|---------8------8----------8--------8-!7---|
|-9-----9---9------9-9----9----9-------!7---|
|----10-------10-------10---------10---!9---|
|-------------------------------------------|
|-------------------------------------------|


            Am     Em
   H         Q..    S     W
   |         |      |     |
   /         /      /     /

   Q..    S  Q..    S     W
|-^7--------^5--------|------------------||
|-^7-----!5-^5--------|------------------||
|-^7-----!5-^5-----!9-|-!(9)-------------||
|-^9-----!7-^7-----!9-|-!(9)-------------||
|---------------------|-!-7--------------||
|---------------------|-!-7--------------||
|
| Gtr VI
|  W                      H     Q  E  E
|---------------------|------------------||
|---------------------|------------------||
|---------------------|------------------||
|---------------------|------------------||
|---------------------|--------------10\-||
|---------------------|--------------10\-||


 Guitar Solo
  Gtr III
                  ~~~~~~~~~~                                    ~~~~~~~~~~~~~~~~~~~~~~~~~~~~
  a    +Q        +Q     +E.    S   +E.    +S    a    +Q        +Q     +Q.              +S  +S
|---------------------------------------------|------------------------------------------------|
|---------------------------------------------|------------------------------------------------|
|-7b9==(7)-------(7)----(7)---[7]--(7)r===(7)-|-7b9==(7)-------(7)----(7)--------------(7)r(7)-|
|---------------------------------------------|------------------------------------------------|
|---------------------------------------------|------------------------------------------------|
|---------------------------------------------|------------------------------------------------|
|
| Gtr IV
|                                   \2                                           \2
|                 ~~~                                           ~~~
|       E  S S   +H                +Q                 E  S S   +H               +Q
|---------------------------------------------|------------------------------------------------|
|---------------------------------------------|------------------------------------------------|
|-------4--4-4---(4)---------------(4)--------|-------4--4-4---(4)--------------(4)------------|
|---------------------------------------------|------------------------------------------------|
|---------------------------------------------|------------------------------------------------|
|---------------------------------------------|------------------------------------------------|
|
| Gtrs V, VI
|                    ~~~               ~~~                         ~~~              ~~~
|       E  S S    S  E.  E  S  S    S  E.             E  S S    S  E.  E  S S    S  E.
|---------------------------------------------|------------------------------------------------|
|---------------------------------------------|------------------------------------------------|
|---------------------------------------------|------------------------------------------------|
|-------5--7-7b9-----7---5--7--7b9-----7------|-------5--7-7b9-----7---5--7-7b9-----7----------|
|---------------------------------------------|------------------------------------------------|
|-------0--2-2b3-----2---0--2--2b3-----2------|-------0--2-2b3-----2---0--2-2b3-----2----------|
        E  S S    S  E.  E  S  S    S  E.             E  S S    S  E.  E  S S    S  E.


        ~~~
  a    +H             +S   E     S    +S   a     +S     +S  +S
|-----------------------------------------------------------------|
|-----------------------------------------------------------------|
|-7b9==(7)------------(7)r-7b9---7b9==(7)r-7pb8==(7)b9==(7)r(7)---|
|-----------------------------------------------------------------|
|-----------------------------------------------------------------|
|-----------------------------------------------------------------|
|
|       ~~~
|       W
|-----------------------------------------------------------------|
|-----------------------------------------------------------------|
|-------5---------------------------------------------------------|
|-----------------------------------------------------------------|
|-----------------------------------------------------------------|
|-----------------------------------------------------------------|
|
|                  ~~~                            ~~~~~~
|       E  S S   S E.  E       S S     S          E.
|-----------------------------------------------------------------|
|-----------------------------------------------------------------|
|-------5--7-7b9---7---5-------7-7b9--------------7---------------|
|-----------------------------------------------------------------|
|-------0--2-2b3---2---0-------2-2b3--------------2---------------|
|-----------------------------------------------------------------|
        E  S S   S E.  E       S S     S          E.


  ~~~~~~~~~~~~~~~~~~~~~~~~~                            ~~~~
                       |--3---|
  E.     a     +S     +E      S    +S  T T  Q         +Q
|-----------------------------------------------------------------|
|-----------------------------------------------------------------|
|-7pb9---7pb8==(7)b9==(7)r----7pb9r(7)-7s9s11--------(11)---------|
|-----------------------------------------------------------------|
|-----------------------------------------------------------------|
|-----------------------------------------------------------------|
|
| ~~~~~~~~~~~~~~~~~~~~~~~~~                 ~~~
| Q                   +E.              T T  Q.               +E
|-----------------------------------------------------------------|
|-----------------------------------------------------------------|
|-5-------------------(5)--------------4s5s=7----------------(7)\-|
|-----------------------------------------------------------------|
|-----------------------------------------------------------------|
|-----------------------------------------------------------------|
|
|                          ~~~                            ~~~
| E    S        S      S   E.               E  S S     S  E.
|-----------------------------------------------------------------|
|-----------------------------------------------------------------|
|-5----7--------7b9--------7----------------5--7-7b9------7-------|
|-----------------------------------------------------------------|
|-0----2--------2b3--------2----------------0--2-2b3------2-------|
|-----------------------------------------------------------------|
  E    S        S      S   E.               E  S S     S  E.


                     ~~~~                   ~~~~                          ~~~~
  E  S  S      +S   +E. E   S  S      +S   +E.        E   S  S      +S   +E. E   S  S    S   S   S  S
|---------------------------------------------------|-------------------------------------------------|
|---------------------------------------------------|-----------------------------------10h=12--10-12-|
|-9-11-11b12==(11)r(11)-9--11-11b12==(11)r(11)------|-9--11-11b12==(11)r(11)-9--11-12-----------------|
|---------------------------------------------------|-------------------------------------------------|
|---------------------------------------------------|-------------------------------------------------|
|---------------------------------------------------|-------------------------------------------------|
|
| ~~~~~~~~~~~~~~~~~~~~~~~~~~~~~~~~~~~~~~~~~~~~~~~~~~~~~~~~~~~~~~~~~~~~~~~~~~~~~~~~~~~~~~
| E  S  S      +Q       Q.                     +E     E.     S      +Q       E.    +S   +S   S   S  S
|---------------------------------------------------|-------------------------------------------------|
|---------------------------------------------------|-------------------------------------------------|
|-4--4--4------(4)------4----------------------(4)\-|-4------4------(4)------4-----(4)--(4)s=5--/6-/7-|
|---------------------------------------------------|-------------------------------------------------|
|---------------------------------------------------|-------------------------------------------------|
|---------------------------------------------------|-------------------------------------------------|
|
|                    ~~~~                   ~~~~                          ~~~~               ~~~
| E  S  S       S    E. E   S  S       S    E.        E   S  S       S    E. E   S  S    S   E.
|---------------------------------------------------|-------------------------------------------------|
|---------------------------------------------------|-------------------------------------------------|
|---------------------------------------------------|-------------------------------------------------|
|-5--7--7b9----------7--5---7--7b9----------7-------|-5---7--7b9----------7--5---7--7b9------7--------|
|---------------------------------------------------|-------------------------------------------------|
|-0--2--2b3----------2--0---2--2b3----------2-------|-0---2--2b3----------2--0---2--2b3------2--------|
  E  S  S       S    E. E   S  S       S    E.        E   S  S       S    E. E   S  S    S   E.

[ Tab from: http://www.guitartabs.cc/tabs/p/pink_floyd/hey_you_tab_ver_3.html ]
                                                                      \0.5/
   ~~~~~~~~~~~~~~~~~~                      ~~~~~~~~~~~~~~~~~~
                  |--------3--------|                     |-----3-----|
   Q             +E      E   S      S      Q             +E     +E    E
|--------------------------------------------------------------------12-------|
|-12pb13========(12)----12r-12pb13-12pb13-12pb13========(12)---(12)r----------|
|-----------------------------------------------------------------------------|
|-----------------------------------------------------------------------------|
|-----------------------------------------------------------------------------|
|-----------------------------------------------------------------------------|
|
|  ~~~~~~~~~~~~~~~~~~                      ~~~~~~~~~~~~~~~~~~
|                 |----3-----|
|  Q             +E      E   E             Q             +S  E              S
|-----------------------------------------------------------------------------|
|-----------------------------------------------------------------------------|
|--9-------------(9)-----9---9-------------9-------------(9)-9s=============8-|
|-----------------------------------------------------------------------------|
|-----------------------------------------------------------------------------|
|-----------------------------------------------------------------------------|
|
|                    ~~~                                     ~~~
|  E      S S     S  E.                    E      S S     S  E.
|-----------------------------------------------------------------------------|
|-----------------------------------------------------------------------------|
|--5------7-7b9------7---------------------5------7-7b9------7----------------|
|-----------------------------------------------------------------------------|
|--0------2-2b3------2---------------------0------2-2b3------2----------------|
|-----------------------------------------------------------------------------|
   E      S S     S  E.                    E      S S     S  E.


   ~~~~~~~~~~~~~~~~~~~~~~~           ~~~~~~~~~~~~~~~~~~~
   Q              +S   S  +S   +S    Q             +S    E      S
|--------------------------------------------------------------12-|
|-12pb13=========(12)-12-(12)r(12)--12pb13========(12)r-15b17-----|
|-----------------------------------------------------------------|
|-----------------------------------------------------------------|
|-----------------------------------------------------------------|
|-----------------------------------------------------------------|
|
|  ~~~~~~~                        ~~
|  E.        S    +S   S   S    T T  Q              S    E      S
|-----------------------------------------------------------------|
|-----------------------------------------------------------------|
|--9--------/9----(9)--9s==8----8s9s11------------------11----/12-|
|-----------------------------------------------------------------|
|-----------------------------------------------------------------|
|-----------------------------------------------------------------|
|
|                      ~~~                               ~~~~~
|  E      S  S     S   E.            E      S S     S    E.
|-----------------------------------------------------------------|
|-----------------------------------------------------------------|
|--5------7--7b9-------7-------------5------7-7b9--------7--------|
|-----------------------------------------------------------------|
|--0------2--2b3-------2-------------0------2-2b3--------2--------|
|-----------------------------------------------------------------|
   E      S  S     S   E.            E      S S     S    E.


           ~~~~~                                   ~~~~~~
           |---3----|  |-----3-----|  |----3----|
   E      +E        S  S     S     S  S      S  S  Q             S      +S  +T   +T   T  T
|---------------------------12----15--------12-15---------------------------------------------|
|-15b17==(15)r-----15-15b17----------15pb17-------15pb17--------15b17==(15)(15)r(15)p12-------|
|---------------------------------------------------------------------------------------14b16-|
|---------------------------------------------------------------------------------------------|
|---------------------------------------------------------------------------------------------|
|---------------------------------------------------------------------------------------------|
|
|  ~~~~~~
|  H                                               Q            +S       E            S
|---------------------------------------------------------------------------------------------|
|---------------------------------------------------------------------------------------------|
|-12----------------------------------------------12-----------(12)-----12s==========11-------|
|---------------------------------------------------------------------------------------------|
|---------------------------------------------------------------------------------------------|
|---------------------------------------------------------------------------------------------|
|
|                              ~~~                                       ~~~~
|  E       S   S       S       E.                  E     S S     S       E.
|---------------------------------------------------------------------------------------------|
|---------------------------------------------------------------------------------------------|
|---------------------------------------------------------------------------------------------|
|--5-------7---7b9-------------7-------------------5-----7-7b9-----------7--------------------|
|---------------------------------------------------------------------------------------------|
|--0-------2---2b3-------------2-------------------0-----2-2b3-----------2--------------------|
   E       S   S       S       E.                  E     S S     S       E.


              ~~~~~~~~~~~~~~~~
    |--3---|
   +S   S  S  E          +S    E     S     S      +S   S  S    S  S   S  S
|---------12------------------------------------------14-15---17s19--17-19---|
|------12----15b17======(15)r-15b17-15b16-15pb17r(15)------------------------|
|-(14)-----------------------------------------------------------------------|
|----------------------------------------------------------------------------|
|----------------------------------------------------------------------------|
|----------------------------------------------------------------------------|
|
|   ~~~~~~~~~~~~~~~~~~~~~~~~~~~~~~~~~~~~~~~~~~~~~~
|   H                                      Q.                         S  S
|----------------------------------------------------------------------------|
|----------------------------------------------------------------------------|
|--12-------------------------------------12-------------------------12s14---|
|----------------------------------------------------------------------------|
|----------------------------------------------------------------------------|
|----------------------------------------------------------------------------|
|
|                              ~~~~~                              ~~~
|   E         S     S     S    E.          E           S  S    S  E.
|----------------------------------------------------------------------------|
|----------------------------------------------------------------------------|
|----------------------------------------------------------------------------|
|---5---------7-----7b9--------7-----------5-----------7--7b9-----7----------|
|----------------------------------------------------------------------------|
|---0---------2-----2b3--------2-----------0-----------2--2b3-----2----------|
    E         S     S     S    E.          E           S  S    S  E.


                                ~~~~~~
                                                                  |-3-|
   E       S  S    +S   +E   S  Q             E          a       +E   S
|-19pb20==19-19---(19)-(19)r19-19pb20--------19b20-----(19)pb21r(19)p17-|
|-----------------------------------------------------------------------|
|-----------------------------------------------------------------------|
|-----------------------------------------------------------------------|
|-----------------------------------------------------------------------|
|-----------------------------------------------------------------------|
|
|                                                   \1
|  ~~~~~~~~~~~~~~~~~~~~~~~~~~~~~~~~~~~~~~~~~~~~~~~~
|  Q               +S    E.     Q            +S     E.
|-----------------------------------------------------------------------|
|-----------------------------------------------------------------------|
|-14--------------(14)--14-----14-----------(14)---14-------------------|
|-----------------------------------------------------------------------|
|-----------------------------------------------------------------------|
|-----------------------------------------------------------------------|
|
|                        ~~~~~                      ~~~
|  E       S  S     S    E.     E     S S     S     E.
|-----------------------------------------------------------------------|
|-----------------------------------------------------------------------|
|--5-------7--7b9--------7------5-----7-7b9---------7-------------------|
|-----------------------------------------------------------------------|
|--0-------2--2b3--------2------0-----2-2b3---------2-------------------|
|-----------------------------------------------------------------------|
   E       S  S     S    E.     E     S S     S     E.


      ~~~~~~~~~~~                  ~~~~~~~                             ~~~
                                                         |---3----|
   S  S       E       +S   E  +S   Q              E     +S   +S   S    H.        Q
|-19-19pb20==19------(19)-19r(19)-19pb20=========19----(19)r(19)p17-|-19---------------||
|-------------------------------------------------------------------|------------------||
|-------------------------------------------------------------------|------------------||
|-------------------------------------------------------------------|------------------||
|-------------------------------------------------------------------|------------------||
|-------------------------------------------------------------------|------------------||
|
|                                                                                \2.5
|             ~~~                          ~~                          ~~~
|  E          Q.                   E       Q             E             H.       +Q
|-------------------------------------------------------------------|------------------||
|-------------------------------------------------------------------|------------------||
|-14---------14-------------------14------14------------14\---------|-12-------(12)----||
|-------------------------------------------------------------------|------------------||
|-------------------------------------------------------------------|------------------||
|-------------------------------------------------------------------|------------------||
|
|                                                                                \2.5
|                          ~~~                      ~~~~~~~~~~~~~~~~~~~~~~       ~~~~~~
|  E          S  S     S   E.      E       S S    S E.                 H.       +Q
|-------------------------------------------------------------------|------------------||
|-------------------------------------------------------------------|------------------||
|--5----------7--7b9-------7-------5-------7-7b9----7---------------|--4--------(4)----||
|-------------------------------------------------------------------|------------------||
|--0----------2--2b3-------2-------0-------2-2b3----2---------------|------------------||
|-------------------------------------------------------------------|--0--------(0)----||
   E          S  S     S   E.      E       S S    S E.                 H.       +Q


   Bridge
   3/4              4/4                     2/4
    Gtr II
     E. S E. S E E   E E E S S E E E S S  3x E S S E S S
||--^0--0-2--2-3-2-|-0-0-0-0-0-0-0-0-0-0--||-0-0-0-2-2-2-|
||o-^1--1-3--3-0-3-|-1-1-1-1-1-1-1-1-1-1-o||-1-1-1-3-3-3-|
||--^0--0-2--2-0-2-|-0-0-0-0-0-0-0-0-0-0--||-0-0-0-2-2-2-|
||--^2--2-0--0-0-0-|-2-2-2-2-2-2-2-2-2-2--||-2-2-2-0-0-0-|
||o-^3--3------2---|-3-3-3-3-3-3-3-3-3-3-o||-3-3-3-------|
||-------------3---|----------------------||-------------|


  Em
 4/4
  Gtr II
  W                                 W
  |
  /

  Gtr I
  S S S S S S S S S S S S S S S S   S S S S S S S S S S S S S S S S
|---------------------------------|-------5-----5---------5-----5----|
|-7-----8-----8---7-----8-----8---|-5-------6-------5-------6--------|
|-----9---9-----9-----9---9-----9-|-----7-----7---7-----7-----7---7--|
|---9-------9-------9-------9-----|---7---------------7--------------|
|---------------------------------|----------------------------------|
|---------------------------------|----------------------------------|


                                     1.,2.
    W                                 W
    S S S S S S S S S S S S S S S S   S S S S S S S S S S S S S S S S
||----------------------------------|-------5-----5---------5-----5----||
||o-7-----8-----8---7-----8-----8---|-5-------6-------5-------6-------o||
||------9---9-----9-----9---9-----9-|-----7-----7---7-----7-----7---7--||
||----9-------9-------9-------9-----|---7---------------7--------------||
||o---------------------------------|---------------------------------o||
||----------------------------------|----------------------------------||


  3.
                                 Emadd9
  H               Q       E.     S
                                 |
                                 /

  S S S S S S S S S S S S S  S S S
|-------5-----5---------5------5------||
|-5-------6-------5-------6-----------||
|-----7-----7---7-----7------7---7----||
|---7---------------7-----------------||
|-------------------------------------||
|-------------------------------------||


 Verse 3
                                                        Bm
                                      2/4
  H..                           +S S   +Q..             S
  |                              | |    |               |
  /                              / /    /               /

  S   S S S S S S S S S S S S S  S S    S   S S S S S S S
|------------------------------------|--------------------|
|-7-------8-----8---7-----8------8---|--7-------8-----8---|
|-------9---9-----9-----9---9------9-|--------9---9-----7-|
|-----9-------9-------9-------9------|------9-------9-----|
|------------------------------------|--------------------|
|------------------------------------|--------------------|


                                   Emadd9
 4/4
  H..                           +S S
  |                              | |
  /                              / /

  S   S S S S S S S S S S S S S  S S
|---------7-------7-------7------7-----|
|-7-----7-----7-----7-------7----------|
|-----------7---7-------7-----7----7---|
|-----9---------------9----------------|
|--------------------------------------|
|--------------------------------------|


                                                       Bm
                                      2/4
  H..                           +S S   Q..             S
  |                              | |   |               |
  /                              / /   /               /

  S   S S S S S S S S S S S S S  S S   S   S S S S S S S
|------------------------------------|-------------------|
|-7-------8-----8---7-----8------8---|-7-------8-----8---|
|-------9---9-----9-----9---9------9-|-------9---9-----7-|
|-----9-------9-------9-------9------|-----9-------9-----|
|------------------------------------|-------------------|
|------------------------------------|-------------------|


                                     Dsus2
 4/4
  H..                              S S
  |                                | |
  /                                / /

  S   S S S S S S S S  S S S  S  S S S
|---------7-----7----------7-------7---|
|-7---------7-----7-7----7----7------7-|
|-------7-----7------------------7-----|
|-----9----------------9---------------|
|--------------------------------------|
|--------------------------------------|
|
| Gtr III
| H                 E.     S +S  S S S
|--------------------------------------|
|--------------------------------------|
|--------------------------------------|
|--------------------------4-(4)-5-6-7-|
|--------------------------2-(2)-3-4-5-|
|--------------------------------------|


                                       G        D
                                      2/4
  W                                    Q        Q
  |                                    |        |
  /                                    /        /

  S   S S S S S S S S S S S S S S  S   S S S  S S S S S
|---------5-----5---------5-----5----|--------------------|
|-5---------7-------5-------7--------|-8--------7-----8---|
|-------7-----7---7-----7-----7----7-|-----7--------7-----|
|-----7---------------7--------------|---9--------7-------|
|------------------------------------|-------10-----------|
|------------------------------------|--------------------|
|
| H..                           E      Q        Q
|------------------------------------|-3--------2---------|
|------------------------------------|-3--------3---------|
|-7-----------------------------7\---|-0--------2---------|
|-7-----------------------------7\---|-0--------0---------|
|-5-----------------------------5\---|----------0---------|
|------------------------------------|-3------------------|


  C                                       Bm
 4/4
  H..                                 +S   S
  |                                    |   |
  /                                    /   /

  S    S S S S  S S S  S   S S S S  S  S   S
|--------------------------------------------|
|----------8------8------------8-------8--!7-|
|-9------9---9------9--9-----9---9--------!7-|
|-----10-------10---------10-------10-----!9-|
|--------------------------------------------|
|--------------------------------------------|
|
| H                   +S   S S S E     E
|--------------------------------------------|
|-5-------------------(5)--------5-----5\----|
|-5-------------------(5)--5-----5-----5\----|
|-5-------------------(5)--5-----5-----5\----|
|-3-------------------(3)------3-3-----3\----|
|--------------------------------------------|


           Am            Em
   Q.    S  S  Q.     S   S     W
   |     |  |  |      |   |     |
   /     /  /  /      /   /     /

   Q..      S  Q..        S     W
|-^7----------^5------------|---------*|
|-^7-------!5-^5------------|---------*|
|-^7-------!5-^5---------!9-|-!(9)----*|
|-^9-------!7-^7---------!9-|-!(9)----*|
|---------------------------|-!-7-----*|
|---------------------------|-!-7-----*|
|
|  H           Q.     E         W
|---------------------------|---------*|
|---------------------------|---------*|
|--4-----------2------------|---------*|
|--4-----------2------------|---------*|
|--2-----------0------------|---------*|
|--------------------12\----|---0-----*|




Tablature Legend
----------------
 h   - hammer-on
 p   - pull-off
 b   - bend
 pb  - pre-bend
 r   - bend release (if no number after the r, then release immediately)
 /\  - slide into or out of (from/to "nowhere")
 s   - legato slide
 S   - shift slide
  - natural harmonic
[n]  - artificial harmonic
n(n) - tapped harmonic
 ~   - vibrato
 tr  - trill
 T   - tap
 TP  - trem. picking
 PM  - palm muting
\n/  - tremolo bar dip; n = amount to dip
 \n  - tremolo bar down
 n/  - tremolo bar up
/n\  - tremolo bar inverted dip
 =   - hold bend; also acts as connecting device for hammers/pulls
 <>  - volume swell (louder/softer)
 x   - on rhythm slash represents muted slash
 o   - on rhythm slash represents single note slash

Misc Legend
-----------
 |  - bar
||  - double bar
||o - repeat start
o|| - repeat end
*|  - double bar (ending)
 :  - bar (freetime)
 $  - Segno
 &  - Coda
Tempo markers -  = BPM(8/16=s8/s16), where s8 = swing 8ths, s16 = swing 16ths


Comments