Pink Floyd - Great Gig In The Sky Chords & Tabs

 

Great Gig In The Sky Chords & Tabs

Pink Floyd Chords & Tabs

Version: 1 Type: Tab 0 ratings
1 star 2 stars 3 stars 4 stars 5 stars
comments

Great Gig In The Sky Tab

   
  THE GREAT GIG IN THE SKY

"Dark Side of the Moon"

TAB

*Note: this tab is electric slide guitar*
 Play slowly

Key: h hammer on
     p pull off
     v vibrato
     / slide up
     \ slide down
     r release bend
     v vibrato


F/A    Gm7               C9       Gm7           C9                 Fmaj7
----|------------------|--------|-3-----------|------------------|------------|
-1/-|-v3----------3/---|v5------|---------3/--|v5------------5/--|v10---------|
----|-v3----------3/---|v5------|---------3/--|v5------------5/--|v10---------|
----|------------------|--------|-------------|------------------|------------|
----|------------------|--------|-------------|------------------|------------|
----|------------------|--------|-------------|------------------|------------|

[ Tab from: http://www.guitartabs.cc/tabs/p/pink_floyd/great_gig_in_the_sky_tab.html ]
 and I am not frightened of dying; any time will do I don't mind
                Bbmaj7                                      Ebmaj7
---------|----------------------------------------------|---------------------|
-8/10----|-----v3------------------------------/8-------|--v8-----------------|
---------|-----v3------------------------------/8-------|--v8-----------------|
---------|----------------------------------------------|---------------------|
---------|----------------------------------------------|---------------------|
---------|----------------------------------------------|---------------------|


 why should I be frightened of dying? there's
 no reason for it; you're got to go sometime
Cm7                                                             F7
-6/8-----------------------------------------------|--------------------------|
---------------------8------------------8------10--|----v10---------10--------|
--------------------------------8------------8/10--|----v10-----10------------|
---------------------------------------------------|--------------------------|
---------------------------------------------------|--------------------------|
---------------------------------------------------|--------------------------|

 Bbmaj7          Ebmaj7       Bb                        Gm7
---------------------------|-------------------------||-----------------------|
-3/------3/8-----8---------|-v3------------------/3--||-15--------------------|
-3/--------8-----8---------|-v3------------------/3--||-15--------------------|
----------------------/3---|-------------------------||-----------------------|
---------------------------|-------------------------||-----------------------|
---------------------------|-------------------------||-----------------------|
Comments