Pink Floyd - Great Gig In The Sky Chords & Tabs

 

Great Gig In The Sky Chords & Tabs

Pink Floyd Chords & Tabs

Version: 1 Type: Bass Tab 0 ratings
1 star 2 stars 3 stars 4 stars 5 stars
comments

Great Gig In The Sky Bass Tab

   
        Bm                  F                 Bb
G-----------------| |---------------| |------------------|
D-----------------| |---------------| |------------------|
A-------2---------| |---------------| |-------1----------|
E-----------------| |--------1------| |------------------|
       F/A                                      Gm7
G------------------|-------------------|--------------------|
D------------------|-----------------3-|--------------------|
A------------------|-------------------|--------------------|
E-------2----------|-------------------|---------3----------|
                                 C9
G---------------------|---------------------|-------------------------|
D---------------------|---------------------|-------------------------|
A---------------------|---1-------3---------|----------3-----3--------|
E---------3-----3-----|---------------------|-------3-----------------|
           Gm7                                            C9
G---0------------------|-----------------------|---------------------|
D----------------------|-----------------------|-----0---------------|
A------3---------------|-----------------------|--------1--3---------|
E-----------3----------|---------1----2------1-|---------------------|
                                   Fmaj7
G---------------------|--------0--------------|---------------------|
D---------------------|---2---------3---------|---------------------|
A----------3----3-----|-----------------------|-------3-------------|
E-------3-------------|-----------------------|----------1----1-----|

G---------------------|----------------------|---------------------|
D---------------------|----------------------|---3-------1---------|
A---3-------1---------|----------1-----1-----|------1--------------|
E------1--------------|----------------------|---------------------|
                                     Cm7
G-------------------------|----------------------|---------------------|
D-----------1----1-----1--|----------------------|---------------------|
A-------1-----------------|-----------3----------|----------3----------|
E-------------------------|----------------------|---------------3----3|
                                 F7
G----------------------|---------------------|--------------------|
D---5-------3----------|---------------------|--------------------|
A----------------------|----------0----------|---------1----------|
E----------------------|-------3-------------|--------------------|
                             Bbmaj7                Ebmaj7
G-------------------|--------------------|---------------------|
D-------------------|--------------------|---------------------|
A-------------------|---------1----------|----------1----------|
E-------------------|--------------------|---------------------|
         Bb Bb                               (vocals)  Gm7
G-----------------------|---------3----------|--------------------|
D-----------------------|--------------------|--------------------|
A--------1---1----------|--------------------|--------------------|
E-----------------------|--------------------|----------3---------|

G-----------------------|-------------------|----------------0---5---|
D-----------------------|-------------------|----------------4-------|
A-----------------------|-------------------|---------3--------------|
E-------3--3----3----1--|-------------------|------3-----------------|

G---0----0------------|---------0----0---------|--------------------|
D---------------------|-----0-------------3----|--0-----------------|
A---3-----------------|------------------------|-------3------------|
E---------------------|------------------------|--------------------|

G-------------------------|---------------------|---------------------|
D-----------------------3-|------5--------------|-----3---------------|
A----3--3-----3------5----|-------------------5-|--------------5------|
E-------------------------|---------------------|---------------------|

G---------------------|-----------------------------|------------------|
D---------------------|-----------------------------|---5--------------|
A----3----------------|-----3------3------5----5----|-----------------5|
E-------------------3-|-----------------------------|------------------|

G------------------0-----------|-------------------|---------------0---|
D---5------5----3-------0------|-------------------|------------3------|
A----------------------------3-|-------------------|----3----5---------|
E------------------------------|-------------------|-------------------|

G------------------0---|-----0-------------------|---------------------|
D----------------------|----------3----0---------|---------------------|
A----------------------|---------------------3---|----------------3----|
E---------------3------|-------------------------|---------------------|

G----------------------|------------------0----|-----------------------|
D----------------------|-----------------------|--3----0---------------|
A----3------------5----|-----------------------|----------3--1----3----|
E----------------------|-------------3---------|-----------------------|

G------------------|----------------0-----|--------------0-----0--|
D------------------|-------0--------------|-----------0-----------|
A------------------|----------4-----------|-----------------------|
E------------------|----------------------|-----------------------|

G-----------------------|-----5-------------------|--------------------|
D----3----0-----------5-|------------5------------|-----------0--------|
A--------------3--------|---------------3-----3---|-----3--4-----------|
E-----------------------|-------------------------|----------------3---|
[ Tab from: http://www.guitartabs.cc/tabs/p/pink_floyd/great_gig_in_the_sky_btab.html ]
G---------------------|-----------------------|----------------------|
D---------------------|-----------------------|----------------------|
A---------------------|--------1-----3--------|--------------------3-|
E-----------3------3--|-----------------------|--------------3-------|

G-----------0---------|-------0-------------|---------------------|
D-----2--2------------|------------3--------|---------------------|
A---------------------|---------------------|--5------3-----------|
E---------------------|---------------------|---------------------|

G--------------------------|-----------------------|-------------------|
D--------------------------|---------0--------0----|-------------------|
A-------2--3----3------3---|---4-------------------|-------4------4---3|
E--------------------------|-----------------------|-------------------|

G----------------------|--------------------|--------------------|
D--------4-------------|--------------------|--------------------|
A--4--4----------------|------2-------------|------2-------------|
E----------------2-----|--------------------|--------------------|

G---------------------|-----4--------------|--------------------|
D------------------4--|--------------------|--------------------|
A-----2---------------|--------------------|------2-------------|
E---------------------|--------------------|--------------------|

G----------------|--------------|---------------------|----------------|
D----------------|--------------|-----------------3---|----------------|
A-------------2--|--------------|-------------3-------|----------1-----|
E----------------|-----1--------|---------------------|----1-----------|

G----------3-------------|----------------------|-----------2----------|
D----3--------3----------|---3------------------|-------3--------3-----|
A---------------------1--|-------1----0---------|----------------------|
E------------------------|----------------------|----------------------|

G----------------------|------------0--------|----------------------|
D----------------------|-------0-------------|-----0----------------|
A---3--0---------------|---------------------|-------------3--------|
E------------3---------|---------------------|--------3-------------|

G------------------------|----------------------|------------0--------|
D------------------------|-------0--------------|-------0-----------0-|
A----------2--3------3---|----3-----------------|---------------------|
E------------------------|--------------3-------|---------------------|

G----------------------|-------0----5----------|-----------------------|
D------3--0------------|---------------------5-|-------------0--3------|
A--------------3-------|-----------------------|------3---4------------|
E---1------------------|-----------------------|-----------------------|

G--------------------|----------------------|-----------------------|
D--------------------|---3------------------|-----------------------|
A----------------3---|--------------1-------|-------------1-----1---|
E---1----------------|------1---------------|-----------------------|

G---------|------------------|-----------|------0----|------------|
D-----1---|--------1------1--|-----------|-----------|---------3--|
A---------|----1-------------|------3----|-----------|------------|
E---------|------------------|-----------|-----------|--3---------|

G--------------------|------------0-------|---------------------|
D--------------------|--------------------|-------------3-------|
A------------3-------|--------------------|---------------------|
E--------------------|--------------------|------3--------------|

G-----------------------|---------2----3-------|----------------------|
D-----------------------|------3---------------|------3-------1-------|
A---------------0-------|----------------------|---------1------------|
E----------3------------|----------------------|----------------------|

G--------------------|-------------3-------|--------------------|
D--------------------|----------3----------|--------------------|
A----1------------1--|---------------------|------------1-------|
E--------------------|---------------------|--------------------|

G---------------------|--------------------|-----0----------------|
D---------------------|------------------0-|----------------------|
A---------------------|--------------------|--------------3-------|
E-------------3-------|--------------------|----------------------|

G---------------------|-------------------|---------------------|
D---------------------|-------------------|------------------0--|
A------------3-----3--|-------------------|---------------------|
E---------------------|------------3------|---------------------|

G----0----------------|-----------------------|-------------------|
D---------------------|-----------------------|-------------------|
A--------------3------|--------------3-----3--|-------------------|
E---------3-----------|-----------------------|------------3------|

G-------------0------|-----------------------|---------------------|
D--------0-----------|------0----------------|---------------------|
A--------------------|----------------3------|------------3-----3--|
E--------------------|---------3-------------|---------------------|

G--------------------|-------------0------|----------------------|
D------0-------------|--------0-----------|------0---------------|
A--------------------|--------------------|---------------3------|
E-------------3------|--------------------|----------3-----------|

G-----------------------|----------------0------|-------------------|
D-----------------------|--------0--------------|------------3------|
A--------------3-----3--|-----3-----------------|-------------------|
E----------3------------|-----------------------|-------------------|

G---------------------|----------------------|--------------------|
D---------------------|----------------------|--------------------|
A-----5--------3------|--------------3----3--|--------------------|
E---------------------|-----------3----------|-------------3------|

G-----------0------|-------------------|-------------------|-------0---|
D------0-----------|------0------------|-------------------|-----------|
A------------------|-------------3-----|----------3------3-|-----------|
E------------------|-------------------|-------------------|----------3|
Comments