Pink Floyd - Goodbye Blue Sky Chords & Tabs

 

Goodbye Blue Sky Chords & Tabs

Pink Floyd Chords & Tabs

Version: 2 Type: Tab 2 ratings
1 star 2 stars 3 stars 4 stars 5 stars
comments

Goodbye Blue Sky Tab

   
#-----------------------------------------------------------------------------#
#-- File created with Instab - http://www.pconline.com/~smcarey/instab.html --#
#-----------------------------------------------------------------------------#

Author/Artist: pink floyd
Title: goodbye blue sky
Album: The Wall Live
Transcribed by: Saverain
Email: saverain@hotmail.com

This is what it sounds like to me and if you don't like it
E-mail me
you'll have to find the lyrics somewhere else sorry. I are not to good words
I this song for one guitar because I doubt your going 
to start a band with my tab.  
Play intro with cd sounds right on the mark.
v strum down
^ strum up
m mute
s strum down slowly

-|--------------------------------|----------------------------------|--------
-|--------------------------------|----------------------------------|--------
-|--------------------------------|----------------------------------|--------
-|---4-------4---4---4------------|-4---4-------4---4---4------------|-4---4--
-|-5---5-10----5---5---5-7--7h9p5-|---5---5-10----5---5---5-7--7h9p5-|---5----
-|--------------------------------|----------------------------------|--------
   v ^ v v   ^ v ^ v ^ v ^  ^       ^ v ^ v ^                                 

---------------------------------|---------------------------|----------------
---------------------------------|---------------------------|----------------
---------------------------------|-5---5---5--4-4------------|-5---5---5--4-4-
-------4---4---4-----------------|-x---x---x--x-x------------|-x---x---x--x-x-
-5-10----5---5---5-10--9-7-3p2-x-|---3---3-3----2-x--x--x--x-|---3---3-3----2-
-------------------------------5-|---5---5--------5--5--5--5-|---5---5--------
                                I added on for flavor                         

----------------|---------------------------------------------|---------------
----4--5--5h7/--|---------------------------------------------|---------------
----------------|-----0-------0-------0-----------------------|----11----9----
----------------|---4---4---4---4---4---4---4-----------------|---------------
-x--------------|-5-------5-------5-------5---7/9-7--5--2p0---|---------------
-5--------------|-------------------------------------------7-|-10----10---10-
                                                                verse v  ^ v  

------------------------------------------------------|----|------------------
------------------------------------------------------|----|------------------
----7-------6--6h7p6----------------------------------|----|----5--5--5--5--5-
--------------------------5-------5-------5-------5---|-3x-|----x--x--x--x--x-
------------------------9---9---9---9---9---9---9---9-|----|----3--3--3--3--3-
-10---10-10-----------7-------7-------7-------7-------|----|-5--5--5--5--5--5-
 v  ^ v  v                                   I added on to this               
[ Tab from: http://www.guitartabs.cc/tabs/p/pink_floyd/goodbye_blue_sky_tab_ver_2.html ]
---------|---|------------------------------------------------|---------------
---------|---|------------------------------------------------|---------------
-5--5--5-|---|----5--5--5---5-5-5---5---4-4-4---4---2-2-2---2-|---------------
-x--x--x-|2x-|----x--x--x-------------------------------------|---------------
-3--3--3-|---|----3--3--3-3-------3---2-------2---0-------0---|---------------
-5--5--5-|---|-5--5--5--5-------------------------------------|---------------
                          not shure>            end of verse                  

-|---------------------------------|-----|-------|----------------------------
-|---------------------------------|-----|-------|----------------------------
-|---------------------------------|-----|-------|-----0-------0--------------
-|-----5-------5-------5-------5---|-----|-------|---4---4---4---4---4--------
-|---9---9---9---9---9---9---9---9-|-----|-------|-5-------5-------5---7/9-7--
-|-7-------7-------7-------7-------|-----|-------|----------------------------
                                    intro  verse                              

-----------|-|----------------------------------------------------------------
-----------|-|----------------------------------------------5--------------5--
-----------|-|----------------------------------------------5--------------5--
-----------|-|-------------------------------------------------0--0--0--0-----
--5--2p0---|-|-5--5--5--5--5--5--5--5--5--5--5--5--5--5--5-----5--5--5--5-----
---------7-|-|----------------------------------------------------------------
                                                                              

----------------------------------------------------------|-------------------
-------------5--------------5-----------------------------|-------------------
-------------5--------------5-----------------------------|-------------------
--0--0--0--0----0--0--0--0-----0--0-----------------------|---4-------4---4---
--5--5--5--5----5--5--5--5-----5--5--3p2p0----------------|-5---5-10----5-----
--------------------------------------------3--1----------|-------------------
                                     bass D tuning         outro fade         

------------------------------------------------------------------------------
------------------------------------------------------------------------------
------------------------------------------------------------------------------
---4-----------4---4---7/9-7--4---4---4-------------4---4---7/9-7--4---4---4--
-5---5-7-7h9p5---5---5----------5---5---5-7--7h9p5----5---5----------5---5----
------------------------------------------------------------------------------
                                                                              

-------------|----------------------------------------------------------------
-------------|----------------------------------------------------------------
-------------|----------------------------------------------------------------
-------------|----------------------------------------------------------------
-5-7--7h9p5--|----------------------------------------------------------------
-------------|----------------------------------------------------------------
                                                                              

Comments