Pink Floyd - Fearless Chords & Tabs

 

Fearless Chords & Tabs

Pink Floyd Chords & Tabs

Version: 3 Type: Tab

Fearless Tab

   
Pink Floyd
Fearless
From The Album: Meddle

All the other tabs for this song are wrong on this site so i thought i'd submit the 
way to play it.
Open G Tuning: (low to high DGDGBD)


          G Bb C A
Chords: D-0-3--5-2-|
        B-0-3--5-2-|
        G-0-3--5-2-|
        D-0-3--5-2-|
        G-0-3--5-2-|
        D-X-X--X-X-


Intro:
D-0----0-0-0-0---------0-0-0-0---------|
B--0---0-0-0-0-0-1-1-0-0-0-0-0-1-0-----|
G---0--0-----0---------0-----0-----2-0-|    X2
D----0-0-----0---------0-----0---------|
G-----00-----0---------0-----0---------|
D--------------------------------------|

D-------------------------------------------0-0-0-0---------0-0---|
B-------------------------------------------0-0-0-0-1-0-----0-0---|
G---------4-0-0-5-0-0-7-0-0-9-0-0-11-0-12\0-0-----0-----2-0-0-0---|  X3
D-------------------------------------------0-----0---------0-0---|
G-0-0-0-0-4-0-0-5-0-0-7-0-0-9-0-0-11-0-12\0-0-----0---------0-0---|
D-----------------------------------------------------------------|

  Riff 1
D-------------------------------------------|
B-------------------------------------------|
G---------4-0-0-5-0-0-7-0-0-9-0-0-11-0-12\0-| X1
D-------------------------------------------|
G-0-0-0-0-4-0-0-5-0-0-7-0-0-9-0-0-11-0-12\0-|
D-------------------------------------------|

D-0-0-5-0-3-3-3-0-0-0-0-0--|
B-0-0-5-0-3-3-3-0-0-0-0-0--|
G-0-0-5-0-3-3-3-0-0-0-0-0--| X2
D-0-0-5-0-3-3-3-0-0-0-0-0--|
G-0-0-5-0-3-3-3-0-0-0-0-0--|
D--------------------------|
Verse1:
G                                     C G Bb Bb Bb G
You say the hills to steep to climb

G                                     C G Bb Bb Bb G
Climb it

G                                     C G Bb Bb Bb G
You say you'd like to see me try

G                                     C G Bb Bb Bb G
Climbing

A                                       D
You pick the place and i'll choose the time
[ Tab from: http://www.guitartabs.cc/tabs/p/pink_floyd/fearless_tab_ver_3.html ]
G                                 C
And i'll climb that hill in my own way

G                         C
Just wait awhile for the right day

G                          C
And as I rise above the tree line and the clouds

      D                  C              G
I'll look down hear the sounds of the things you said today
Riff 1 x4
Break: x3

D-2/5-5-5-5-5-5-5-5-5-5\2-2-2-2-2-2-2-2-2-
B-2/5-5-5-5-5-5-5-5-5-5\2-2-2-2-2-2-2-2-2-
G-2/5-5-5-5-5-5-5-5-5-5\2-2-2-2-2-2-2-2-2-
D-2/5-5-5-5-5-5-5-5-5-5\2-2-2-2-2-2-2-2-2-
G-2/5-5-5-5-5-5-5-5-5-5\2-2-2-2-2-2-2-2-2-
D-----------------------------------------

           H
Post Break:G      C G Bb Bb Bb G
Verse2:
G                                      C G Bb Bb Bb G
Fearlessly the idiot faced the crowd

G                                      C G Bb Bb Bb G
Smiling

G                                      C G Bb Bb Bb G
Mass arrest the magistrate turns round

G                                      C G Bb Bb Bb G
Frowning

A                                  D
And who's the fool who wears the crown

G                    C    
And go down in your own way

G                    C
And everyday is the right day

G                     C
And as you rise above the fear lines in his brow

     D                   C              G
You look down hear the sounds of the faces in the crowd
Riff 1 x12 Start fading at about 9.5-10
Ola 
Ollaa 
Aoh 
Aoha
And you'll never walk     x2 first time during last quarter of riff 1
Alone
You'll never walk alone

(Cheering)
Liverpool 
Liverpool
(Cheering)
Ohaoh
Ohaoh
Ohaoh
Ohaoh
Ohaoh 
Ohaoh

All of this cheering is from the fans of Liverpool football club in Liverpool,England
Enjoy