Pink Floyd - Echoes Chords & Tabs

 

Echoes Chords & Tabs

Pink Floyd Chords & Tabs

Version: 2 Type: Tab 0 ratings
1 star 2 stars 3 stars 4 stars 5 stars
comments

Echoes Tab

Band: Pink Floyd
Song: Echoes

b - Bend
r - Release
h - Hammer-on



Intro Solo

|------------12b14-------|----12b14--------|-----------
|------------------------|-----------------|----12b14--
|------------------------|-----------------|-----------
|------------------------|-----------------|-----------
|------------------------|-----------------|-----------
|------------------------|-----------------|-----------


|------------------|---12b14---12--9---12b14--12--------|
|--12---12b14------|------------------------------12----|
|------------------|------------------------------------|
|------------------|------------------------------------|
|------------------|------------------------------------|
|------------------|------------------------------------|
[ Tab from: http://www.guitartabs.cc/tabs/p/pink_floyd/echoes_tab_ver_2.html ]
|--------------------------------------------------------|
|---12b14---12-------------------------------------------|
|-----------------11b12r11--9-11b12-----11b12r11--9------|  |----------------------------------------------------9---|
|--------------------------------------------------------|
|--------------------------------------------------------|


|-----------------------|---------------------------------|
|-----------------------|---------------------------------|
|-----------------------|---11b12r11--9--11---11b12r11--9-|
|--------------9--9h11--|---------------------------------|
|-----9---11------------|---------------------------------|
|--11-------------------|---------------------------------|


|----------|--------12b13----11b12----11b12----11--|
|----------|---------------------------------------|
|--12b14---|---------------------------------------|
|----------|---------------------------------------|
|----------|---------------------------------------|
|----------|---------------------------------------|
Comments