Pink Floyd - Corporal Clegg Chords & Tabs

 

Corporal Clegg Chords & Tabs

Pink Floyd Chords & Tabs

Version: 2 Type: Bass Tab 0 ratings
1 star 2 stars 3 stars 4 stars 5 stars
comments

Corporal Clegg Bass Tab

   
I noticed that the Bass tabs for this song don't seem accurate to me. 
That's why I took a try to get the bassline correct for this awesome song :)
I also put some lyrics in it so you can follow it better.
enjoy :D

G|--------------|--------------|----------------|---------------|
D|--------------|--------------|----------------|---------------|
A|----2-3-2-----|--------------|-----2-3-2------|---------------|
E|--0-------3-0-|-0--x-x-0--x-x|-0-0-------3--0-|-0--x-x-0--x-x-|

 | . . . . . . . . . . . . . I N T R O . . . . . . . . . . . . .

G|-------------|------------|------------|---------------|--------------|
D|-------------|----------0-|-0--0--0----|---------------|--------------|
A|-----------0-|-0--3--3----|----------0-|-0--0--0---2-3-|2-------------|
E|-0--x-x-0----|------------|------------|---------0-----|--3-0--0--x-x-|

. . .        Corporal Clegg ...

G|---------------|------------|------------|------------|---------------|
D|---------------|------------|----0--0--0-|-0----------|---------------|
A|---------------|----0--0--3-|-3----------|----0--0--0-|-0---2-3-2-----|
E|-0--x-x-0--x-x-|-0----------|------------|------------|---0-------3-0-|

                      Corporal Clegg ...

G|---------------|--------------|---------------|-----------|--------------|
D|---------------|-------------4|-3-------------|---------4-|3-------------|
A|---------------|-----------2--|---4-----------|-------2---|--4-----------|
E|-0--x-x-0--x-x-|-0--x-x-0-----|-----3-4-5-0-2~|~~-2~~-----|----3-4-5-0-2~|

                             Dear oh dear .....

G|----------|------------|------------|------------|------------|------------|
D|--------0-|-0--0--0--0-|-0--0--0--0-|-0--0--0--0-|-0--0--0----|------------|
A|----------|------------|------------|------------|------------|------------|
E|~~-2~~~---|------------|------------|------------|----------3-|-3--3--3--3-|

                                    Misses Clegg ....

G|-------------|------------|------------|------------|------------|
D|-----------0-|-0--0--0--0-|-0--0--0----|------------|------------|
A|-------------|------------|------------|------------|----------0-|
E|-3--3--3-----|------------|----------3-|-3--3--3--3-|-3--3--3----|
  
             Misses Clegg ....
[ Tab from: http://www.guitartabs.cc/tabs/p/pink_floyd/corporal_clegg_btab_ver_2.html ]
G|------------|------------|------------|------------|------------|
D|----5-----5-|------------|------------|------------|--0-5-----5-|
A|-------5----|-5--5-----5-|------------|----5-----5-|2------5----|
E|-4----------|-------5----|-5--5--0--5-|-0-----5----|------------|
  
      K A Z O O  P A R T        K A Z O O  P A R T       K A Z O O 

G|------------|------------|------------|------------|------------|------------|
D|------------|------------|------------|------------|------------|----------0-|
A|-5--5-----5-|------------|----5-----5-|------------|-0----------|-0--3--3----|
E|-------5----|-5--5--0--5-|-0-----5----|------------|------------|------------|

   P A R T        K A Z O O  P A R T    |  P A U S E |             Corporal Clegg ...

G|------------|---------------|--------------|---------------|-----------|
D|-0--0--0----|---------------|--------------|---------------|-----------|
A|----------0-|-0--0--0---2-3-|2-------------|---------------|---0--0--3-|
E|------------|---------0-----|--3-0--0--x-x-|-0--x-x-0--x-x-|0----------|

                                                                 Corporal Clegg ...

G|------------|------------|--------------|---------------|------------|
D|----0--0--0-|-0----------|--------------|---------------|----------0-|
A|-3----------|----0--0--0-|0---2-3-2-----|---------------|------------|
E|------------|------------|--0-------3-0-|-0--x-x-0--x-x-|0--x-x-0----|



G|------------|------------|------------|------------|------------|------------|
D|-0--0--0--0-|-0--0--0--0-|-0--0--0--0-|-0--0--0----|------------|----------0-|
A|------------|------------|------------|------------|------------|------------|
E|------------|------------|------------|----------3-|-3--3--3--3-|-3--3--3----|

                         Misses Clegg ....

G|------------|------------|------------|------------|------------|------------|
D|-0--0--0----|------------|------------|----5-----5-|------------|------------|
A|----------3-|------------|----------0-|-------5----|-5--5-----5-|------------|
E|------------|-3--3--3--3-|-3--3--3----|-4----------|-------5----|-5--5--0--5-|

                                        |   K A Z O O  P A R T        K A Z O O

G|------------|------------|------------|------------|------------|------------|
D|------------|----5-----5-|------------|------------|------------|--0-5-----5-|
A|----------0-|-------5----|-5--5-----5-|------------|----5-----5-|2------5----|
E|-3--3--3----|-4----------|-------5----|-5--5--0--5-|-0-----5----|------------|
                                                                   R E P E A T
    P A R T       K A Z O O  P A R T      K A Z O O  P A R T    ....
G|------------|------------|------------|
D|------------|------------|------------|
A|-5--5-----5-|------------|----5-----5-|
E|-------5----|-5--5--0--5-|-0-----5----|

T H I S   P A R T   U N T I L    E N D
Comments