Pink Floyd - Comfortably Numb Chords & Tabs

 

Comfortably Numb Chords & Tabs

Pink Floyd Chords & Tabs

Version: 5 Type: Tab 0 ratings
1 star 2 stars 3 stars 4 stars 5 stars
comments

Comfortably Numb Tab

   
----------------------------------------------------------------------------
			     Comfortably Numb - Pink Floyd
----------------------------------------------------------------------------
Tabbed by: slash_roads
Email: slash_2k4@hotmail.com

Tuning: Standard

| /  slide up
| \  slide down
| h  hammer-on
| p  pull-off
| ~  vibrato
| +  harmonic
| x  Mute note

Hello, Is there any body in there?
		    G         Em        Bm
Just nod if you can hear me, is there anyone at home?
A
Come on, now, I hear your feeling  down,
      G	   	          Em		Bm
well, I can ease  your  pain,   get you on your feet again.
			A		    G                Em
relax, I need soem information, first,  just the basic facts,
	 Bm
Can you show me where it hurts



Coro:

D			    A
There is no pain you are receding, 
D				 A        
A distant ships smoke, on the horizon,
C				G
You are only coming through in waves,
C						G
Your lips move, but I can't hear what your saying,
     D			     A
When I was a child, I had a fever,
  D				A       
my hands felt just like, two ballons,
C				    G
Now I've got that feeling once again,
G				  C
I can't explain, you would not understand,
			G
This is not how I am,
A	G		  D
and I, have become comfortably numb.


Solo 1

-----------------------10-|--14~---------x-14r------|
--------------------10----|----------------------15b|
-----------------11-------|-------------------------|
--------------------------|-------------------------|
--------------------------|-------------------------|
--------------------------|-------------------------|
                                                                   
--------------------------------|----------------------10-14r-----|
--------15--14--14--------------|--------------0----10------------|
-------------------14-----------|----------------11---------------|
----------------------14-----12-|--12~----------------------------|
--------------------------------|---------------------------------|
--------------------------------|---------------------------------|
                                                                           
-----------------------------------------|--------------------------------|
--15b-----15h-14-------------------------|--------------------------------|
------------------14---------------------|--12~---------11-----------11/9-|
----------------------14/-12--11--9------|------------------14--12~-------|
-------------------------------------12--|--------------------------------|
-----------------------------------------|--------------------------------|
                                                                           
--------------------------------|--------------14-15h-14--12--------------|
--------------------------------|------------x----------------15h-12------|
--9~--7-7~-----9h7---7-9-11b-11b|----------x--------------------------12--|
-------------------9------------|--------x--------------------------------|
--------------------------------|-----------------------------------------|
--------------------------------|-----------------------------------------|
                                                  
-----------------------------|-------------------|
-----------------------------|-------------------|
-----------------------------|---------------9b--|
--12~---10/-9--9~----10h9/7--|-------------------|
-----------------------------|-------------------|
-----------------------------|-------------------|
                                                                  
--------------------------|-------------------|
--------------------------|-------------------|
-------9r-9r7----7--------|-------------------|
--------------------9/-7--|--7~---------------|
--------------------------|-------------------|
--------------------------|-------------------|

Bm			A			  G         Em
O.K., just a little pin prick, there'll be no more (scream),
	   Bm
But you may feel a little sick.  Can you stand up?
		   A				  G  		      Em
I do believe it's working, good. That'll keep you going throught the show,
Bm
C'mon it's time to go

D			     A
There is no pain you are receding,
D				A       
A distant ships smoke on the horizon,
C				 G
You are only coming through in waves,
    C					      G
Your lips move, but I can't hear what your saying,
    D				   A
When I was a child, I caught a fleeting glimpse,
D			 A     
Out of the corner of my eye,
C			       G
I turned to look, but it was gone,
			   C
I can not put my finger on it now, 
			    G
The child is grown, the dream is gone,
A	G		  D
and I, have become comfortably numb.

[ Tab from: http://www.guitartabs.cc/tabs/p/pink_floyd/comfortably_numb_tab_ver_5.html ]
|--------------------|
|--------------------|
|--------------7---9-|
|--------------------|
|--------------------|
|--------------------|
                                                            
-------------------------|---------------------------------|
-------------------------|------------------------10----10~|
--9b----------9r---7---7-|--9-9~-7----7b------11-----11----|
---------------------9---|---------9-----------------------|
-------------------------|---------------------------------|
-------------------------|---------------------------------|
                                                                  
-------------------10b----------|--------------------------------|
----12-12r---10-12--------------|-------------------10h7---7-----|
--------------------------7--9--|--9r--7-----------------9---9h7b|
--------------------------------|--------9~----------------------|
--------------------------------|--------------------------------|
--------------------------------|--------------------------------|
                                                    
------------------------|----------------------7-9-|
------------------------|--------------------7-----|
----------------------7-|--------------------------|
--9~-----------7-7~-9---|----9h7-9-----------------|
-------------9----------|--------------------------|
------------------------|--------------------------|
                                   
--9b-----7----7-------------------|
-----------10---10b12~-----10h7---|
--------------------------------9-|
----------------------------------|
----------------------------------|
----------------------------------|
                                             
------7-------------------------------------|
----7---10h7--------------------------------|
--9b---------9-9r7---9-7--------------------|
-------------------9-----9-7----------------|
-----------------------------9-8-7/5---5~---|
-------------------------------------7------|
                                                                         
--------------------7---------------|------------------------------------|
------------------7---10h7----------|------------------------------------|
--7-7-7~-----x-9b----------9-9r-7---|--9-7b------------------------------|
----------------------------------9-|------9h7---------------------7-7-7~|
------------------------------------|----------9-7-5-7h5---5~-7--9-------|
------------------------------------|--------------------7---------------|
                                   
------------------7---------------|
----------------7---10---7--------|
--------7b--7-9b-------9b--7~-9h0-|
----9h7---9-----------------------|
----------------------------------|
----------------------------------|
                                                                       
------7---------------------------------------|-----------------------|
----7---10h7-------------------------------7--|--------------------7b-|
--9b---------9-9r7---9-7b------------------7--|----------------7-7-7b-|
-------------------9-----9-7---------------7--|--9~------------9-7-7b-|
-----------------------------9-8-7-5---5h0----|-----------------------|
-------------------------------------7--------|-----------------------|
                                                                 
--------------------------------|----------------7----7---------|
---------x-7-7b----7------------|------------------10-7-10r-----|
---------x-7-7b----7---9r---7---|--7-9-9b11~--------------------|
--21~----x-7-7b-9----x--------9-|-------------------------------|
--------------------------------|-------------------------------|
--------------------------------|-------------------------------|
                                                   
------7-------------------------------------------|
----7---10h7--------------------------------------|
--9b---------9-9r-7-9h7---7-----------------------|
------------------------9---9h7-9h7---7-----------|
------------------------------------9---9-8-7/5---|
------------------------------------------------7-|
                                                                 
-----------------------------|----------------------------------|
------------------7------7r--|-------------------------7b-------|
-----7------------7----x-7r--|----------7h9h0-9~-9h7---7b-------|
--9~-7----9-9-9-9-7----x-7r--|--7~----9--------------9----9h7---|
-----------------------------|--------------------------------9-|
-----------------------------|----------------------------------|
                                         
----------------------------------------|
-----------7b----------------7b---------|
-----9h7---7b----------------7b-9h7-9-x-|
--7~-9h7h9----9h7---7~-9h7--------------|
------------------9--------9------------|
----------------------------------------|
                                                                        
---------------------------7-7-7------|----------19--21--21b---21b--21-|
----7---7---7-x---7--x-7-7-7-7-7-10h0-|--22b---------------------------|
----7-x-7-x-7-x---7--x-7-7-7-7-7------|--------------------------------|
----7-x---x-----9----------7-7-7------|--------------------------------|
--9-----------------------------------|--------------------------------|
--------------------------------------|--------------------------------|
                                          
--21r---22~---21r-19h21h19~--------------|
------------------------------x-17-17-17-|
-----------------------------------------|
-----------------------------------------|
-----------------------------------------|
-----------------------------------------|
                                     
------------------------------------|
--17~---17r---15----17~-----15b-17--|
-----------------16-----------------|
------------------------------------|
------------------------------------|
------------------------------------|
                                      
--------------------------------------|
--17r--15-----------------------------|
----------16-16~------14-16-----------|
----------------------------14~-12b---|
-----------------------------------14-|
--------------------------------------|
                                            
--------------------------------------0----|
--------15-----15----17-17r-15-17-------12r|
--16~------16-----16--------------16~------|
-------------------------------------------|
-------------------------------------------|
-------------------------------------------|
                                            
-------------------------------------------|
----12-10------------------------------7-7-|
----------9h0-9h7---7-9h7------------x-7-7-|
------------------9-------9h7--------x-----|
------------------------------8-7-5~-------|
-------------------------------------------|
                                       
--------------------------------7-x-7-|
----7bx-x---7bx---7----7---7~-x-7-x-7-|
----7bx-x---7bx---7h-9-7---7~-x-------|
--9-------9-----9--------9------------|
--------------------------------------|
--------------------------------------|
                                                                
--7-7-x-7-7--7-x-7-x-7-x-7-x-7-7--------|---------------------||
--7-7-x-7-7--7-x-7-x-7-x-7-x-7-7-10-----|---------------------||
------------------------------------9b9-|--7------------------||
----------------------------------------|----9-9~-------------||
----------------------------------------|---------------------||
----------------------------------------|---------------------||

============================================================================
Comments