Pink Floyd - Comfortably Numb Solo Chords & Tabs

 

Comfortably Numb Solo Chords & Tabs

Pink Floyd Chords & Tabs

Version: 1 Type: Tab 11 ratings
1 star 2 stars 3 stars 4 stars 5 stars
comments

Comfortably Numb Solo Tab

If you are a Pink Floyd fan or have heard the Wall then you definitely
remember the solo from Comfortably Numb. Sorry about the
rough looks of things. I have tabbed it to the best
of my ability.  It was a callaborative effort between
me and me friend.  If you have any comments/corrections, please e-mail me,
but be kind. I am only 14. This is also my first attempt at tabbing
so please be kind.   - Blake

I hope you understand my symbols.
vvvv = vibrato
w = whammy bar 
^ followed by number = bend that many steps eg .5 means a half
step bend (a single ^ means bend less than a half step)
3p2 = pulloff
3h4 = hammer on
/ = slide
x = unpitched percussive note

The majority of this is very fast...probably the equivelant of mostly 16th and32nd notes...
Thats what my friend says...I dont read music very well

Starting after the last "I....have become comfortably numb" lyric

---------------------------------------------------------------------
--3-------------------------------------------------------10--10vv----------
--2-----7--9vvvvvvvvv-9^1vvvvvvv-9^1-7-7-9-9vv-7-7^--/-11---11--                                                                                                                --0-----------------------------------9---------9-----------------------
--0-----------------------------------9---------9-----------------------
---------------------------------------------------------------------
---------------------------------------------------------------------


-------------------10^---------------------------------------------------
--12-12^1.5--10h12------7--9--9^.5-p7----------10p7---7----------
--------------------------------------9vvvvvvv------9---9p7----------
------------------------------------------------------------9vvvv-/-/----
----------------------------------------------------------------------
----------------------------------------------------------------------

                                   rake
------------------------------------7---9--9^.5-----7----7--------------------
-----------------------------------7------------------10---10^1vvvvv--
--------------7--------------------------------------------------------
--/---7-7vv-9----9p7-9--------------------------------------------------
----9------------------------------------------------------------------
----------------------------------------------------------------------


-----------------7-----------------------------------------------------
--10p7---------7---10p7------------------------------------------------
-------9--9^1-----------9^1--9^1-7----9-7^.5-----------------------
-----------------------------------9---------9-7-------------------------
-------------------------------------------------9p8-7-5---5vvvvvv-/--
---------------------------------------------------------7------------


---------------------7-------------------------------------------------
-----------------------10p7-------------------------------------------
-/7-7-7vvvv--x-9^1---------9-9^p7---9-7^---------------------
----------------------------------9------9p7-------------------------
---------------------------------------------9-9p7--5--7p5-----------
-----------------------------------------------------------------7-----

------------------------------------------------------------------7----
---------------------------------------------------------------7-------
---------------------------------------------7^------7-9^1-------------
------------------------7-7-7------9p7---------9----------------------
---5vv--7------7h9----------------------------------------------------
------------5h7----------------------------------------------------------

---------------------------------------7------------------------------------
--10-------7----------------------7-----10p7-----------------------------
------9^1-----7vv--9p0--9^1----------------9-9^-7----9--7^-----------
-----------------------------------------------------------9----------------
---------------------------------------------------------------------------
---------------------------------------------------------------------------


---------------------------------------------------------------------------
------------------------------7-----------------------------------------
------------------------------7--------------------------------------------
--9--7-----------------------7------------------------------------------
--------9--8-7-5----5p0------------------------------------------------
-------------------7--------------------------------------------------------


---------------------------------------------------------------------------
-------------------------7^----------x--7---7^--------7-------------------
-----------------x--7---7^----------x--7---7^--------7----9---------------
---9vvvv------x--7--7^---9vv---x--7---7^---9------9----------------
---------------------------------------------------------------------------
---------------------------------------------------------------------------

[ Tab from: http://www.guitartabs.cc/tabs/p/pink_floyd/comfortably_numb_solo_tab.html ]
------------------------7-------------------------7--------------------------
--------------------------10p7-10^1---------7---10p7-------------------
-7----7h9-9^1vv----------------------9^1-------------9--9^1p7-9p7--
----9-----------------------------------------------------------------------
---------------------------------------------------------------------------
---------------------------------------------------------------------------


---------------------------------------------------------------------------
-------------------------------------------------7^.5--------------------------
------------------------7----------7-7--7---x--7^.5---------------------
----7---------------9------9-9-9--- 7--7---x--7^.5-----------------------
-9----9p8-7-5--------------------------------------------------------------
-----------------7----------------------------------------------------------


---------------------------------------------------------------------------
----------------------------------7^-----------------------------------------
----------------7h9-9v--9p7--7^--------------------------7^------------
--7vvv--h9-------------------------9p7-----7vv--9p7--7^-----------
---------------------------------------------9------------------------------
---------------------------------------------------------------------------

---------------------------------------------------------------------------
-----------------7^--------------------7----7-----7-x----------7----------
-----------------7^--9p7-9-x-------- 7-x-7--x--7-x----------7-------
-9p7--7-9p7-------------------------7-x-----x-------9----------------
----------------------------------7h9-----------------------------------
---------------------------------------------------------------------------

                        or highest fret
-------7--7-7---------------------19--21-21^.5v--21^.5---21--------
---7--7--7-7---22--22^1vvv----------------------------------------------
---7--7--7-7-------------------------------------------------------------------
------7--7-7-----------------------------------------------------------------
---------------------------------------------------------------------------
---------------------------------------------------------------------------


--21^.5--21^.5-21^.5--19h21p19vvv---------------------------
----------------------------------------------x-17-17-17--17^1vvv-------
---------------------------------------------------------------------------
---------------------------------------------------------------------------
---------------------------------------------------------------------------
---------------------------------------------------------------------------


---------------------------------------------------------------------------
--/15-----17vvvv-----15^-17-----17^.5p15-------------------------
-------16------------------------------------------16vvvvv------------
--------------------------------------------------------------------------
---------------------------------------------------------------------------
---------------------------------------------------------------------------

---------------------------------------------10-----------12--12^-10--12----
----------------------------10w1-vvv--------10^1v---------------------
---14--16----------------------------------------------------------------------
------------14--12^-------------------------------------------------------------
-----------------------14----------------------------------------------------
---------------------------------------------------------------------------


---------------------------------------------------------------------------
--12vv--12^1.5------12--10^---------------9p7-----7--11p9p7------------
------------------------------------11p9 /(0)--------9-----------------------
---------------------------------------------------------------------------
---------------------------------------------------------------------------
---------------------------------------------------------------------------


---------------------------------------------------------------------------
-------------------------7--7-----7^---x-x----7^-------7----------------------
----------------------x--7--7-----7^---x-x----7^-------7--p9p7------------
--9p7---------------x---------9-------------9--------9------------9-----------
--------8--7--5v---------------------------------------------------------------
---------------------------------------------------------------------------


-----------------7---x----7---7--7--x--7---x-7--x--7--x--7--7-------------
--7vv------x---7---x----7---7--7--x--7---x-7--x--7--x--7--7----------------
--7vv------x-------------------------------------------------------------------
---------------------------------------------------------------------------
---------------------------------------------------------------------------
---------------------------------------------------------------------------

                                                         Fade out...
---------------------------------------------------------------------------
--10-------------------------------------------------------------------------
------9^1---9--7----------------------------------------------------------------
-------------------9--9vvvvvvvv-------------------------------------------
---------------------------------------------------------------------------
---------------------------------------------------------------------------


There it is...I hope you get it all....Maybe as I get more experience tabbing
I will post it better. 
Comments