Pink Floyd - Comfortably Numb Chords & Tabs

 

Comfortably Numb Chords & Tabs

Pink Floyd Chords & Tabs

Version: 1 Type: Bass Tab 6 ratings
1 star 2 stars 3 stars 4 stars 5 stars
comments

Comfortably Numb Bass Tab

   
Song Title: Comfortably Numb
Artist: Pink Floyd
----------------------------------------------

one pink floyd's many masterpieces, laid back and with a hell-of-a-lot of soul



intro:

  Bm        Bm 
||-----------|----------||
||-----------|----------||
||2---2-2----|2----2----||
||-----------|----------||
           guitar slide


verse 1:

  Bm          A          G     Em    B
||-----------|----------|-----------|----------|
||-----------|----------|-----------|----------|   played 3x
||2---2-2----|0----0----|-----------|2----2----|
||-----------|----------|3---2-0----|----------|
 "hello..."


chorus 1:

  D           A          D          A          C          G          C         G
||-----------|----------|----------|----------|----------|----------|---------|----------||
||-----------|----------|----------|----------|----------|----------|---------|----------||  
||5-------5\-|0---------|5------5\-|0-------2-|3---------|--------2-|3--------|----------||
||-----------|----------|----------|----------|----------|3---------|---------|3---------||
  "there is no pain..."
                               
play the chorus 2x then bridge 1:

                             A           C    G     D           
                           ||-----------|----------|----------||
                           ||-----------|----------|----------||
                           ||0--0-0---2-|3---------|5----5----||
                           ||-----------|-----3----|----------||
                            "i...have become comfortably numb" 


guitar solo 1:
[ Tab from: http://www.guitartabs.cc/tabs/p/pink_floyd/comfortably_numb_btab.html ]
  D          A              D          A           C          G           C          G
||----------|--------------|----------|-----------|----------|-----------|----------|---------||
||----------|--------------|----------|-----------|----------|-----------|----------|---------||
||5----5--\-|0---0-0--2-3-4|5----5--\-|0---0-0--2-|3----3----|---------5-|3---3-3---|---------||
||---------\|--------------|---------\|-----------|----------|3---2-3----|----------|3--3-3---||


bridge 2: 

                            A           C      G     D
                          ||-----------|------------|----------||
                          ||-----------|------------|----------||
                          ||0----0---2-|3--3-5------|5---------||
                          ||-----------|-------3----|----------||
                           "i...have become comfortably numb"


verse 2:    same as verse 1 but only played 2X



chorus 2:     same as chorus 1 tabed above



bridge 3:     

              A             C     G     D            D   
            ||-------------|-----------|------------|-----------|| 
            ||---7--7------|-----------|------------|-----------||
            ||0--------0-2-|3---3------|5--5--5--5--|5--5--5\---||
            ||-------------|------3----|------------|--------\--||
             "i...have become comfortably numb"


guitar solo 2:  same as the verse riff and it continues on throughout the solo
                so just keep funking' it up untill the end



any comments, questions, or tabs email me at whisper@shadow.net       !PEACE!

 

Submitted by:  Whisper (whisper@shadow.net)


Comments