Pink Floyd - Breathe Chords & Tabs

 

Breathe Chords & Tabs

Pink Floyd Chords & Tabs

Version: 1 Type: Tab 3 ratings
1 star 2 stars 3 stars 4 stars 5 stars
comments

Breathe Tab

   
Breathe
Pink Floyd
Dark side of the Moon


This is my version, it's my first, so it might not be so accurate. I got it by ear. Any mistakes E- mail to black_lion_13@hotmail.com

          Emadd9               A                              Emadd9
E||-------0----|------------|--0----------------------|-------0----|
B||-------0----|--0s---0----|--2--------2-----2h3h2---|-------0----|
G||-------0----|--0s-x-0----|--2----------0-----------|-------0----|
D||-------4----|--4s-x-4----|--2------2-----2-------2-|-------4----|
A||-------2----|------------|--0----0-----------------|-------2----|
E||--0----0----|------------|-------------------------|--0----0----|

[ Tab from: http://www.guitartabs.cc/tabs/p/pink_floyd/breathe_tab.html ]
                   A                            Emadd9                 
----------------|--0--------------------|-------0----|----------------|
--0s---0--------|--2--------2---2/3-2---|-------0----|--0s---0--------|
--0s-x-0--------|--2--------------------|-------0----|--0s-x-0--------|
--4s-x-4--------|--2------2---2-2/4-2---|-------4----|--4s-x-4--------|
----------------|--0----0-------------0-|-------2----|----------------|
----------------|-----------------------|--0----0----|----------------|


  A                                            
--0--------------------------|-------------------|
--2----14-14-14--12--10------|-------------------|
--2----14-x--14--12--11------|-------------------|
--2----14-x--14--12--11------|----------2--------|
--0--------------------------|----------3--------|
-----------------------------|----------3--------|
						For Long you Live...
Bm ( strum couple times)			
And high you fly, and only if you ride the tide, 

Fmaj7 (pick ad lib)          G 				Dm    D7b9
Balanced on the biggest wave, racing towards an early grave.

End with Emadd9.
Comments