Pink Floyd - Best Days Of Our Lives Chords & Tabs

 

Best Days Of Our Lives Chords & Tabs

Pink Floyd Chords & Tabs

Version: 1 Type: Bass Tab 0 ratings
1 star 2 stars 3 stars 4 stars 5 stars
comments

Best Days Of Our Lives Bass Tab

   
tabbed by: zep123
email: zepman74@yahoo.com
artist: Pink Floyd
song: happiest days of our lives (i know i messed up with the title)
album: The Wall (Disc 2)

(THIS TAB HAS CORRECTIONS I FOUND FROM MY OTHER SUBMITION)

This is a pretty short song but very simple to play. The guitar plays basicly one not
constant and the bass follows this riff. It sounds correct to me, but I don't know 100%.

Have Fun-

g---|---|---|---------------------------|
d---|---|---|---------------------------|
a-5-|-5-|-5-|-5-5-5-3-3-3---------------|
e---|---|---|-------------6-6-6-5-5-5-3-|

g---|---|---|---|
d---|---|---|---|
a---|---|---|---|
e-3-|-3-|-3-|-3-|
[ Tab from: http://www.guitartabs.cc/tabs/p/pink_floyd/best_days_of_our_lives_btab.html ]
g-----|-----|-----|-----------------------------------------|
d-----|-----|-----|-----------------------------------------|
a-----|-----|-----|-------3-------------------3-------------|
e-3-5-|-3-5-|-3-5-|-3-5-5---5-3-1-1-1-1-3-5-5---5-3-1-1-1-1-| 

g-----|-----|-----|-----------------------------------------|
d-----|-----|-----|-----------------------------------------|
a-----|-----|-----|-------3-------------------3-------------|
e-3-5-|-3-5-|-3-5-|-3-5-5---5-3-1-1-1-1-3-5-5---5-3-1-1-1-1-| 

g-----|-----|-----|---|---------------------------------|
d-----|-----|-----|---|---------------------------------|
a-----|-----|-----|---|-5-5-5-5-3---------------------3-|
e-3-5-|-3-5-|-3-5-|-3-|-----------6-6-6-6-5-3-3-3-3-3---|

g-------|-------|-------|-------|-------|-------|
d-------|-------|-------|-------|-------|-------|
a-------|-------|-------|-------|-------|-------|
e-5-3-1-|-6-5-3-|-5-3-1-|-6-5-3-|-5-3-1-|-6-5-3-|

g---|---|
d---|---|
a---|---|
e-3-|-3-|
Comments