Pink Floyd - Astronomy Domine Chords & Tabs

 

Astronomy Domine Chords & Tabs

Pink Floyd Chords & Tabs

Version: 1 Type: Tab 0 ratings
1 star 2 stars 3 stars 4 stars 5 stars
comments

Astronomy Domine Tab

   
Pink Floyd 
Astronomy Domine

P.M.
e -------------
b -------------
G -------------
D -------------
A -------------
E -0-0-0-0-0-0-

e -----------------------------------
b -----------------------------------
G -----------------------------------
D -----2-1---------2-1---1-1-1-2-1-2-
A -----2-1---------2-1---1-1-1-2-1-2-
E -3\0-------0-3\0-------------------

e -------------
b -------------
G -------------
D -2-2-2-2-2-2-
A -2-2-2-2-2-2-
E -0-0-0-0-0-0-

e ---------------------------3--3--3-4-5-
b ---------------------------1--1--1-2-3-
G -------16-16-16-16-16-16---0--0--0-0-0-
D -/12-----------------------2--2--2-3-4-
A -/12-----------------------3--3--3-4-5-
E----------------------------------------

e -------------------------------------------------------
b -------------------------------------------------------
G -14-14-14-12-12-12-11-11-11-12-12-12-14-14-14-14-14-14-
D -------------------------------------------------------
A -------------------------------------------------------
E -------------------------------------------------------

e ------------------3-----------------------3-
b ------------------1-----------------------0-
G -14-14-14-14/21---0---12-13-14-13-12------0-
D ------------------2------------------13---0-
A ------------------3-----------------------2-
E ------------------------------------------3-
                 strum                    strum		 

E -12-11-10-9-8-7-6-5-
b --------------------
G --------------------
D --------------------
A --------------------
E --------------------

e -17-17-17--16-16-16--15-15-15--14-14-14-
b ----------------------------------------
G ----------------------------------------
D ----------------------------------------
A ----------------------------------------
E ----------------------------------------

e -13-13-13--12-12-12--11-11-11--10-10-10-
b ----------------------------------------
G ----------------------------------------
D ----------------------------------------
A ----------------------------------------
E ----------------------------------------

e -2---2---2---2-3-------3-4-
b ---3---3---3-----4---4-----
G -------------------3-------
D ---------------------------
A ---------------------------
E ---------------------------

Rest

e -12~---11-11-11-11-11-11-
b -------------------------
G -------------------------
D -------------------------
A -------------------------
E -------------------------

e -10\3-3/10-10\3-3/10-10\5-5-----------------------------
b ----------------------------5b-3b-3b-1b---1-------------
G ----------------------------------------2---0-----------
D ----------------------------------------------2-1-0-1-2-
A --------------------------------------------------------
E --------------------------------------------------------
[ Tab from: http://www.guitartabs.cc/tabs/p/pink_floyd/astronomy_domine_tab.html ]
e -0-------5h4-0-----4h5p4-4h5p4-3-3-3-15\3-
b ---3-0-3-------3-0-------------0-0-0------
G ------------------------------------------
D ------------------------------------------
A ------------------------------------------
E ------------------------------------------

e ---------------------6-5-6-5-6-5-5-3-5-3-5-8-8-8-8-8-8-8b-
b -0-1-2-3-3-3-0--------------------------------------------
G ---------------0-3-0--------------------------------------
D ----------------------------------------------------------
A ----------------------------------------------------------
E ----------------------------------------------------------

e --------------------14-14-14-10-5-5-6-5-5-6-5-5-6-5-5-6----
b ---3---5b-3-0---0-3-------------------------------------9b-
G -4---4--------2--------------------------------------------
D -----------------------------------------------------------
A -----------------------------------------------------------
E -----------------------------------------------------------

e -------5-----5-5-----10-9-7-7-9-10-7-----------------3-
b -1-2-3---2-3-----3-2-----------------6-6-6-6-5-3-2-3---
G -------------------------------------------------------
D -------------------------------------------------------
A -------------------------------------------------------
E -------------------------------------------------------

e -----------------------------------18-18-18\3-3/18\3/18-
b -8-8-8-10-0-3-4-5b-5-5-5-5-3b-5-4~----------------------
G --------------------------------------------------------
D --------------------------------------------------------
A --------------------------------------------------------
E --------------------------------------------------------

E -3-3-3-3-5-3-3-5-3-3-5-3-3-5-3-3-3-12-11-10-9-8-7-6-5-
b ------------------------------------------------------
G ------------------------------------------------------
D ------------------------------------------------------
A ------------------------------------------------------
E ------------------------------------------------------

E -17-17-17-16-16-16-15-15-15-14-14-14-
b -------------------------------------
G -------------------------------------
D -------------------------------------
A -------------------------------------
E -------------------------------------

e -13-13-13-12-12-12-11-11-11-10-10-10-10\-
b -----------------------------------------
G -----------------------------------------
D -----------------------------------------
A -----------------------------------------
E -----------------------------------------

e -2-1-1h2p1---2-2-1-1-2-2-1-1-2-2-1-1-2-
b -----------3---------------------------
G ---------------------------------------
D ---------------------------------------
A ---------------------------------------
E ---------------------------------------

francv

Comments