Pink Floyd - Another Brick In The Wall Part 2 Chords & Tabs

 

Another Brick In The Wall Part 2 Chords & Tabs

Pink Floyd Chords & Tabs

Version: 6 Type: Tab 0 ratings
1 star 2 stars 3 stars 4 stars 5 stars
comments

Another Brick In The Wall Part 2 Tab

Pink Floyd
Another Brick in the Wall Part II  Solo
Album "The Wall" 1979 

Tuning: normal

Guitar Solo:
============
e|-------------------------------10---------------10-----------------------|       
B|--------13p10----10---------10------------------10-10-10-------13b(15)---|        
G|--------------12----12b(14)-------13b(15)~~~~---10-10-10-----------------|         
D|-------------------------------------------------------------------------|         
A|-------------------------------------------------------------------------|        
E|-------------------------------------------------------------------------|
         
e|-------------------------------------------------------------------------|         
B|--13b(16)~r(13)~---13p10-------------------------------------------10----|        
G|-------------------------12-12b(14)r(12)--10p9----9-------12-------10----|         
D|-----------------------------------------------12---10s12----12~~--------|         
A|-------------------------------------------------------------------------|         
E|-------------------------------------------------------------------------|

e|---------------------------------------------------------13b(15)~~r(13)--|         
B|----10------10-10-----10-10-----10-12-10b~~(11)--------x-----------------|
G|----10------10-10-----10-10-----10-12-10b~~(11)------x-------------------|         
D|-------12---------12--------12-------------------------------------------|
A|-------------------------------------------------------------------------|         
E|-------------------------------------------------------------------------|

e|--13p12-13p12------------------------------------------------------------|         
B|-----------------------------------------------------x-------------------|
G|-------------------13b(15)b(16)~~b(17)r(13)b(15)-----x-------------------|         
D|-----------------------------one-note----------------x-------------------|
A|-------------------------------------------------------------------------|         
E|-------------------------------------------------------------------------|
[ Tab from: http://www.guitartabs.cc/tabs/p/pink_floyd/another_brick_in_the_wall_part_2_tab_ver_6.html ]
e|------------10-----------------------------------------------------------|         
B|---------10----13p10-----------------------------------------------------|
G|--12b(14)------------12-12b(14)r(12)-10-12p10----10b-----12s10-----------|         
D|----------------------------------------------12-----12--12s10-----------|
A|---------------------------------------------------------------12-10-12--|         
E|-------------------------------------------------------------------------|

e|-------------------------------------------------------------------------|         
B|------------------------------------------------------5h6p5--------------|
G|------------------------------------------------5--7--------7-5p7---5b---|         
D|--------------------------------------------s7--------------------7------|
A|--(12)p10s8-10p8----------8----------------------------------------------|         
E|-----------------10p8-10----10p8-10s(3)----------------------------------|

e|-------------------------------------------------------------------------|        
B|---------6~~b(8)-----13b(15)~~r(13)-13b(15)b(16)r(13)~~------------------|        
G|--7--7p5-----------------------------------------------------------------|
D|-------------------------------------------------------------------------|        
A|-------------------------------------------------------------------------|         
E|-------------------------------------------------------------------------|

e|------15b(17)~~--13p10------13-12-15b(17)r(15)b(17)r(15)b(17)r(15)b(17)--|
B|----x-------------------s15----------------------------------------------|        
G|--x----------------------------------------------------------------------|
D|-------------------------------------------------------------------------|        
A|-------------------------------------------------------------------------|         
E|-------------------------------------------------------------------------|

e|--(17)r(15)-----18b(20)-(20)--20b~(22)~--20p17--20p17--------------------|        
B|------------15-----------------------------------------------------------|        
G|----------------------------------------------------------10-10-10b------|
D|---------------------------------------------------------------------12--|        
A|-------------------------------------------------------------------------|         
E|-------------------------------------------------------------------------|

e|-------------------------------------------------------------------------|        
B|--x-x-x-------13------12--12\s10------10--------x--x-x-------------------|        
G|--x-x-x-10s12-12-x-x--12--12\s10------10--------x--x-x-------------------|
D|--------12s14-14-x-x---------------------12--12--------------------------|        
A|-------------------------------------------------------10-8h10-10--8-----|         
E|---------------------------------------------------------------------10--|
Comments