Pink Floyd - Another Brick In The Wall Part 2 Chords & Tabs

 

Another Brick In The Wall Part 2 Chords & Tabs

Pink Floyd Chords & Tabs

Version: 4 Type: Bass Tab 0 ratings
1 star 2 stars 3 stars 4 stars 5 stars
comments

Another Brick In The Wall Part 2 Bass Tab

   
0:05
g------------------|
d------------------|
a------------------|
d-0~~~~~~~~~~~~~~~~|

0:15        (x4)
g-------------------|
d-------------------|
a----3-5--5--5-0--3-|
d-0-----------------|

0:33       0:36     0:38
g-------------------------------------|
d-------------------------------------|
a-------------------------------------|
d-5~~~~~~~~5~~~~~~~~5~~~~5~~~~5-5-5-5-|

0:42
g-------------------|
d-------------------|
a----3-5--5--5-0--3-|
d-0-----------------|

0:47       0:49
g-------------------|
d-------------------|
a-------------------|
d-1~~~~~~~~3~~~~~~~~|

0:52
g-------------------|
d-------------------|
a----3-5--5--5-0--3-|
d-0-----------------|

0:56       0:59
g-------------------|
d-------------------|
a-------------------|
e-1~~~~~~~~3~~~~~~~~|

1:10
g------------------|
d------------------|
a------------------|
d-0~~~~~~~~~~~~~~~~|
[ Tab from: http://www.guitartabs.cc/tabs/p/pink_floyd/another_brick_in_the_wall_part_2_btab_ver_4.html ]
1:20       (x4)
g-------------------|
d-------------------|
a----3-5--5--5-0--3-|
d-0-----------------|

1:38       1:40     1:43
g-------------------------------------|
d-------------------------------------|
a-------------------------------------|
d-5~~~~~~~~5~~~~~~~~5~~~~5~~~~5-5-5-5-|

1:47
g-------------------|
d-------------------|
a----3-5--5--5-0--3-|
d-0-----------------|

1:52       1:54
g-------------------|
d-------------------|
a-------------------|
e-1~~~~~~~~3~~~~~~~~|

1:57
g-------------------|
d-------------------|
a----3-5--5--5-0--3-|
d-0-----------------|

2:01       2:04
g-------------------|
d-------------------|
a-------------------|
e-1~~~~~~~~3~~~~~~~~|

2:06
g-------------------|
d-------------------|
a----3-5--5--5-0--3-|
d-0-----------------|

The guitar solo alters between:

g----------------|     |-------------------|
d----------------|     |-------------------|
a----3-5-----3-5-| and |----3-5--5--5-0--3-|
d-0-------0------|     |-0-----------------|
 Thats it.
Comments