Pink Floyd - Another Brick In The Wall Part 2 Chords & Tabs

 

Another Brick In The Wall Part 2 Chords & Tabs

Pink Floyd Chords & Tabs

Version: 3 Type: Bass Tab 0 ratings
1 star 2 stars 3 stars 4 stars 5 stars
comments

Another Brick In The Wall Part 2 Bass Tab

Vince Tampio

Another Brick in the Wall - The Wall - Bass

Line - Repeat twice
Verse

G-------------------------------------------------------------|
D--0---0-0-0-----0---0-0-0-----0---0-0-0-----0---0-0-0-----0--|
A----3-------0-3---3-------0-3---3-------0-3---3-------0-3----|
E-------------------------------------------------------------|
   We...  ...Education.            We...  ...Thoughts

                                             Pre-Chorus
[ Tab from: http://www.guitartabs.cc/tabs/p/pink_floyd/another_brick_in_the_wall_part_2_btab_ver_3.html ]
G---------------------------------------------------------------|
D--0---0-0-0-----0---0-0-0-----0---0-0-0------------------------|
A----3-------0-3---3-------0-3---3-------0-3-----------------3--|
E--------------------------------------------3-3-3-3-3-3-3-3----|
   Dark ...in.                   Teacher...Kids

Chorus

G--------------------------------------------|
D--0---0-0-0---------0---0-0-0---------0-----|
A----3-------0-----3---3-------0-----3-------|
E--------------3-1---------------3-1---------|
  ...Lone         ...All...             ...All...Wall.

Repeat this line over the entire Solo section -

G-----------------|
D--0---0-0-0------|
A----3-------0-3--|
E-----------------|
Comments