Pink - Love Song Chords & Tabs

 

Love Song Chords & Tabs

Pink Chords & Tabs

Version: 1 Type: Tab 0 ratings
1 star 2 stars 3 stars 4 stars 5 stars
comments

Love Song Tab

   
-----------------------------------------------------------------------
*Love Song by P!nK*
-----------------------------------------------------------------------
Tabbed by : Sandi from Indonesia
Email     : WWW.Pink3sand@yahoo.COM


e|-------------------------------------------------------------------------------------|
B|-----------3--------------------3--------------------3--------------------3----------|
G|--------0-----0--------------0-----0--------------------0--------------------0-------|
D|-----4-----------4--------4-----------4-----------4--------4-----------4-------4-----|
A|--3-----------------0--3-----------------0-----2--------------0-----2-------------0--|
E|--------------------------------------------0--------------------0-------------------|
                                                                     Repeat 3X

e|--2-----3-----2-----3-----2-----3-----2-----3------5--|
B|--1-----1-----1-----1-----1-----1-----1-----1------3--|
G|--0-----0-----0-----0-----0-----0-----0-----0------2--|
D|--2-----2-----2-----2-----2-----2-----2-----2------0--|
A|--0-----0-----0-----0-----0-----0-----0-----0---------|
E|------------------------------------------------------|


e|-------------------------------------------------------------------------------------|
B|-----------3--------------------3--------------------3--------------------3----------|
G|--------0-----0--------------0-----0--------------------0--------------------0-------|
D|-----4-----------4--------4-----------4-----------4--------4-----------4-------4-----|
A|--3-----------------0--3-----------------0-----2--------------0-----2-------------0--|
E|--------------------------------------------0--------------------0-------------------|
                                                                     Repeat 3X

e|--2-----3-----2-----3-----2-----3-----2-----3------5--|
B|--1-----1-----1-----1-----1-----1-----1-----1------3--|
G|--0-----0-----0-----0-----0-----0-----0-----0------2--|
D|--2-----2-----2-----2-----2-----2-----2-----2------0--|
A|--0-----0-----0-----0-----0-----0-----0-----0---------|
E|------------------------------------------------------|


e|-------------------------------------------------------------------------------------|
B|-----------3--------------------3--------------------3--------------------3----------|
G|--------0-----0--------------0-----0--------------------0--------------------0-------|
D|-----4-----------4--------4-----------4-----------4--------4-----------4-------4-----|
A|--3-----------------0--3-----------------0-----2--------------0-----2-------------0--|
E|--------------------------------------------0--------------------0-------------------|

[ Tab from: http://www.guitartabs.cc/tabs/p/pink/love_song_tab.html ]
e|------------------------------------------------------------------------0-------------|
B|----------3--------------------3--------------------3----------------------3----------|
G|-------0-----0--------------0-----0--------------------0----------------------0-------|
D|----4-----------4--------4-----------4-----------4--------4-----------4----------4----|
A|-3-----------------0--3-----------------0-----2--------------0-----2----------------0-|
E|-------------------------------------------0--------------------0---------------------|


e|-------------------------------------------------------------------------------------|
B|-----------3--------------------3--------------------3--------------------3----------|
G|--------0-----0--------------0-----0--------------------0--------------------0-------|
D|-----4-----------4--------4-----------4-----------4--------4-----------4-------4-----|
A|--3-----------------0--3-----------------0-----2--------------0-----2-------------0--|
E|--------------------------------------------0--------------------0-------------------|


e|--2-----3-----2-----3-----2-----3-----2-----3------5--|
B|--1-----1-----1-----1-----1-----1-----1-----1------3--|
G|--0-----0-----0-----0-----0-----0-----0-----0------2--|
D|--2-----2-----2-----2-----2-----2-----2-----2------0--|
A|--0-----0-----0-----0-----0-----0-----0-----0---------|
E|------------------------------------------------------|
    ?        Em9       ?          Em9        ?         Em9
e|--0----------0----------0-----------0-----------0-----------0----------|
B|--3----------3----------3-----------3-----------3-----------3----------|
G|--0----------0----------0-----------0-----------0-----------0----------|
D|--4----------4----------4-----------4-----------4-----------4----------|
A|--3----------2----------3-----------2-----------3-----------2----------|
E|-------------0----------------------0-----------------------0----------|


e|--2-----3-----2-----3-----2-----3-----2-----3------5--|
B|--1-----1-----1-----1-----1-----1-----1-----1------3--|
G|--0-----0-----0-----0-----0-----0-----0-----0------2--|
D|--2-----2-----2-----2-----2-----2-----2-----2------0--|
A|--0-----0-----0-----0-----0-----0-----0-----0---------|
E|------------------------------------------------------|


e|-------------------------------------------------------------------------------------|
B|-----------3--------------------3--------------------3--------------------3----------|
G|--------0-----0--------------0-----0--------------------0--------------------0-------|
D|-----4-----------4--------4-----------4-----------4--------4-----------4-------4-----|
A|--3-----------------0--3-----------------0-----2--------------0-----2-------------0--|
E|--------------------------------------------0--------------------0-------------------|
                                                                           Repeat 3X

e|--2-----3-----2-----3-----2-----3-----2-----3------5--|
B|--1-----1-----1-----1-----1-----1-----1-----1------3--|
G|--0-----0-----0-----0-----0-----0-----0-----0------2--|
D|--2-----2-----2-----2-----2-----2-----2-----2------0--|
A|--0-----0-----0-----0-----0-----0-----0-----0---------|
E|------------------------------------------------------|


*Enjoy*
Comments