Pink - Just Like A Pill Chords & Tabs

 

Just Like A Pill Chords & Tabs

Pink Chords & Tabs

Version: 3 Type: Tab 0 ratings
1 star 2 stars 3 stars 4 stars 5 stars
comments

Just Like A Pill Tab

   
** Just like  a pill **
by P!nK

Tabbed by   :  Sandi & prasso from Indonesia
Email           :  WWW.Pink3sand@yahoo.COM


Guitar 1 : Clean
     A                               GMaj9            E
|-------------------------------------------------------0------|
|-----------2------------------------3---------------0---------|
|--------2----2-------------------2---2------------------------|
|----------------2---------------------------------------------| 3x
|---0-----------------------------------------3-\-2------------|
|--------------------2-------3---------------------------------|

               : Distorsion
        D                          E
|-----2---------------------0--------0-------------------------|
|-----3-------3-------------0-----------0----------------------|
|-----2----2-----2---------1-----1-----------------------------|
|-----0---------------------2----------------------------------| 3x
|----------------------------2---------------------------------|
|----------------------------0---------------------------------|


       A       F#m      D        E
|------0----------2----------2---------0--------------------|
|------2----------2----------3---------0--------------------|
|------2----------2----------2---------1--------------------|
|------2----------4----------0---------2--------------------| 2x
|------0----------4---------------------2-------------------|
|---------------2-----------------0-------------------------|

   Guitar 2  :

               I can't stay on you like suppose.....
   |------------------------------------------------------------|
   |------------------------------------------------------------|
   |----2--~~~~---1---2-/--4---2-~~~~~~-------------------------|
   |------------------------------------------------------------|
   |------------------------------------------------------------| 3x
  |-------------------------------------------------------------|

[ Tab from: http://www.guitartabs.cc/tabs/p/pink/just_like_a_pill_tab_ver_3.html ]
   |--------------------------------------------------------------|
   |---------------------2--2--2--2--2--2--2----------------------|
   |----2--~~~~~~-------------------------------------------------|
   |--------------------------------------------------------------|
   |--------------------------------------------------------------|
  |---------------------------------------------------------------|


  |--------------------------------------------7----------------|
  |---10--------10--------10--------10-------10-----------------|
  |-------9---9------9---9----9---9------9----------------------|
  |-------------------------------------------------------------|
  |-------------------------------------------------------------|
 |--------------------------------------------------------------|


  |-------------------------9---9---9----------7-------------------|
  |-----------10-----10--------------10---------10-----------------|
  |----9---9-------9------------------------9-----------9---9------|
  |----------------------------------------------------------------|
  |----------------------------------------------------------------|
 |-----------------------------------------------------------------|


  |--------------------------------------------7---------------|
  |---10--------10--------10--------10-------10----------------|
  |-------9---9------9---9----9---9------9---------------------|
  |------------------------------------------------------------|
  |------------------------------------------------------------|
 |-------------------------------------------------------------|


  |-------------------------9---9---9----------7-------------------|
  |-----------10-----10--------------10---------10-----------------|
  |----9---9-------9------------------------9----------------------|
  |----------------------------------------------------------------|
  |----------------------------------------------------------------|
 |-----------------------------------------------------------------|


It a great song .........

*Enjoy*
and please rate it
Comments