Pink - Just Like A Pill Chords & Tabs

 

Just Like A Pill Chords & Tabs

Pink Chords & Tabs

Version: 2 Type: Tab 0 ratings
1 star 2 stars 3 stars 4 stars 5 stars
comments

Just Like A Pill Tab

Pink - Just Like A Pill
Album - Missundaztood

Intro [also played in verses]
["im lyin' here, on the floor, where you left me.."]
|-----------------------------------------------------|
|-----------------------------------------------------|
|-------6--------------2------------7---------------9-|
|---7-----7--------4------------7-----7--------9------|
|-----7--------------4--------5---5----------7----7---|
|-5--------------2------------------------------------|

Pre Chorus - with light distortion
["i can stay on your life support theres a shortage and a switch.."]

|-----------------------------------------------------|
|-----------------------------------------------------|
|---7-------------------9-----------------------------|
|---7--let ring---------9--let ring-------------------| repeat x4
|---5-------------------7-----------------------------|
|---x-------------------x-----------------------------|

Chorus
["run.. just as fast as i can.."] - with distortion
[ Tab from: http://www.guitartabs.cc/tabs/p/pink/just_like_a_pill_tab_ver_2.html ]
|--------------------------------------------------------|
|--------------------------------------------------------|
|--------------------------7-7-7-7-7---9-9-9-9-9---------|
|--7-7-7-7-7---3-3-3-3-3---7-7-7-7-7---9-9-9-9-9---------|
|--7-7-7-7-7---3-3-3-3-3---5-5-5-5-5---7-7-7-7-7---------|
|--5-5-5-5-5---1-1-1-1-1---x-x-x-x-x---x-x-x-x-x---------|

Verses [same as intro]

|-----------------------------------------------------|
|-----------------------------------------------------|
|-------6--------------2------------7---------------9-|
|---7-----7--------4------------7-----7--------9------|
|-----7--------------4--------5---5----------7----7---|
|-5--------------2------------------------------------|

Outro [same as chorus] - with distortion
["run..just as fast as i can.."] fade with vocals
|--------------------------------------------------------|
|--------------------------------------------------------|
|--------------------------7-7-7-7-7---9-9-9-9-9---------|
|--7-7-7-7-7---3-3-3-3-3---7-7-7-7-7---9-9-9-9-9---------|
|--7-7-7-7-7---3-3-3-3-3---5-5-5-5-5---7-7-7-7-7---------|
|--5-5-5-5-5---1-1-1-1-1---x-x-x-x-x---x-x-x-x-x---------|



clangerfreak@hotmail.com
~*jinxx*~
Comments