Pink - Just Like A Pill Chords & Tabs

 

Just Like A Pill Chords & Tabs

Pink Chords & Tabs

Version: 3 Type: Bass Tab 0 ratings
1 star 2 stars 3 stars 4 stars 5 stars
comments

Just Like A Pill Bass Tab

   
I relised I had forgot some pices in the other TAB so here is a new one.
And please vote for this one to.
I hope you like it.

Intro: No Bass

Vers 1: No Bass

Pre-Chorus:
G|-------------------------------------|
D|-------------------------------------|
A|-5--------7--------5--------7--------|
E|-------------------------------------|

G|-------------------------------------|                             
D|-------------------------------------|
A|-5--------7--------5--------7---777--|
E|-------------------------------------|

Chorus:
G|-------------------------------------|
D|-------------------------------------|
A|-------47-------14-55555555-77777777-| 2x
E|-555555---222222---------------------|

Vers 2:No Bass
[ Tab from: http://www.guitartabs.cc/tabs/p/pink/just_like_a_pill_btab_ver_3.html ]
Pre-Chorus:
G|-------------------------------------|
D|-------------------------------------|
A|-5--------7--------5--------7--------|
E|-------------------------------------|

G|-------------------------------------|                             
D|-------------------------------------|
A|-5--------7--------5--------7---777--|
E|-------------------------------------|

Chorus:
G|-------------------------------------|
D|-------------------------------------|
A|-------47-------14-55555555-77777777-| 4x
E|-555555---222222---------------------|

Bridge:
G|-------------------------------------|
D|-------------------------------------|
A|-55555555-77777777-55555555-77777777-| 2x
E|-------------------------------------|

Chorus:
G|-------------------------------------|
D|-------------------------------------|
A|-------47-------14-55555555-77777777-| 8x
E|-555555---222222---------------------|
Comments