Pink - Feel Good Time Chords & Tabs

 

Feel Good Time Chords & Tabs

Pink Chords & Tabs

Version: 1 Type: Tab 0 ratings
1 star 2 stars 3 stars 4 stars 5 stars
comments

Feel Good Time Tab

   
Pink

Feel Good Time

Standard Tuning

Fairly simple four bar chord song

  C    Bb    F    Eb
--------------------
--------------------
--5----3-----10---8-
--5----3-----10---8-
--3----1------8---6-
--------------------
[ Tab from: http://www.guitartabs.cc/tabs/p/pink/feel_good_time_tab.html ]
It is possible to play a Cmin 8th position and a Bbmin 6th position 
for easier movement along the fret board. 

C min    Bb min    F    Eb
--------------------------
--------------------------
------------------10----8-
-10--------8------10----8-
-10--------8-------8----6-
--8--------6--------------


Submitted by Sako

Anything to add let me know
sklein49@hotmail.com
Comments