Pink - Dont Let Me Get Me Chords & Tabs

 

Dont Let Me Get Me Chords & Tabs

Pink Chords & Tabs

Version: 6 Type: Tab 0 ratings
1 star 2 stars 3 stars 4 stars 5 stars
comments

Dont Let Me Get Me Tab

Pink
Dont Let me get me-solo
Tabbed by Ajay Anand

Two guitars
try it with one
here it is

--slide 11-------------------------------------------------------|
-----------11-9------13----13------------------------------------|
-----------------12v----12----12--10-10-10h12-10-8-8-----8h10-8v-|
------------------------------------------------------10---------|
-----------------------------------------------------------------|
-----------------------------------------------------------------|
[ Tab from: http://www.guitartabs.cc/tabs/p/pink/dont_let_me_get_me_tab_ver_6.html ]
--11------------------------------------------------------------------|
-----11-9--------------------13----13----(13-11v)---------------------|
-----------12v--(11b12-12v)-----12----12----------10-10-10h12-10-8-8--|
----------------------------------------------------------------------|
----------------------------------------------------------------------|
----------------------------------------------------------------------|

---------13-13-11v)--|
--(11h13-------------|
---------------------|
---------------------|
---------------------|
---------------------|
 peace
Comments