Pink - Dont Let Me Get Me Chords & Tabs

 

Dont Let Me Get Me Chords & Tabs

Pink Chords & Tabs

Version: 5 Type: Tab 0 ratings
1 star 2 stars 3 stars 4 stars 5 stars
comments

Dont Let Me Get Me Tab

Pink - Don't Let Me Get Me
--------------------------

VERSE/CHORUS
|-----------------|
|-----------------|
|-----------------|
|-8---5-----------|
|-6---3---8---6---|
|---------6---4---|

PRE CHORUS
|-----------------|
|-----------------|
|-----------------|
|-8---------------|
|-6---6---4---6---|
|-----8---6---8---|


SOLO
----
(Slide up to the first tone, use a lot of vibrato)
[ Tab from: http://www.guitartabs.cc/tabs/p/pink/dont_let_me_get_me_tab_ver_5.html ]
|-11----------8---8-----------------------|
|----11---------8---8---------------------|
|-------9-8-------------------------------|
|----------------------10-10-12-10---8-8--|
|-----------------------------------------|
|-----------------------------------------|

The solo is actually played simultaneously by 2 guitarrs
and the other one goes something like this

|---------------13-11---------------------|
|--------13-11----------------------------|
|-12-12-----------------------------------|
|-----------------------------------------|
|-----------------------------------------|
|-----------------------------------------|
Comments