Pink - Dont Let Me Get Me Chords & Tabs

 

Dont Let Me Get Me Chords & Tabs

Pink Chords & Tabs

Version: 4 Type: Tab 0 ratings
1 star 2 stars 3 stars 4 stars 5 stars
comments

Dont Let Me Get Me Tab

   
Donít Let Me Get Me-Pink
Missundaztood

E A D G B E

E chord = E5vii

1st Verse:

E                     C#m
Never win first place, I don't support the team
B                              A 
I can't take direction, and my socks are never clean 
E                 C#m
Teachers dated me, my parents hated me 
B                            A
I was always in a fight cuz I can't do nothin'
right 

Pre Chorus:
A                  B
Everyday I fight a war against the mirror 
A                               B
I can't take the person starin' back at me 
                  E
I'm a hazard to myself 

Chorus:
             C#m     B                   A
Don't let me get me, I'm my own worst enemy 
                           E    C#m
Its bad when you annoy yourself, So irritating 
B                           A
Don't wanna be my friend no more 
                    E          C#m
I wanna be somebody else 
                    B       A
I wanna be somebody else, yeah 

2nd Verse:
[ Tab from: http://www.guitartabs.cc/tabs/p/pink/dont_let_me_get_me_tab_ver_4.html ]
E          C#m
LA told me, "You'll be a pop star, 
B                         A
All you have to change is everything you are." 

E                        C#m
Tired of being compared to damn Britney Spears 
B               A
She's so pretty, that just ain't me 

Pre Chorus/Bridge:
A                        B
Doctor, doctor won't you please prescribe somethin 
A                            B
A day in the life of someone else? 
Cuz I'm a hazard to myself 

Chorus:

Guitar Solo:

e--------12-------------9-----9-----------------------------------
b-----------12-10-9--------9-----9--------------------------------
g-4/9-----------------------------------11--11/13--11---9-9-------
d-----------------------------------------------------------------
a-----------------------------------------------------------------
e-----------------------------------------------------------------

e-------------------------------------------------12h14-12h14p12--
b--------------------------------------/14-12---------------------
g-------9h11p9---------11brp9-11~~~~~~----------------------------
d-9h11------------------------------------------------------------
a-----------------------------------------------------------------
e-----------------------------------------------------------------

thatís all

i figured this out myself, so i could care less
if it is wrong.......and i donít care what chaíll say
PINK is fuckiní hot

trevor jones
timmy91199@yahoo.ca
Comments