Pink - Cuz I Can Chords & Tabs

 

Cuz I Can Chords & Tabs

Pink Chords & Tabs

Version: 1 Type: Tab 0 ratings
1 star 2 stars 3 stars 4 stars 5 stars
comments

Cuz I Can Tab

Artist: Pink
Song: Cuz I Can
Album: I'm Not Dead
By Charis Pattison

Its a wkd tune and a wkd album. Its probably not 100% right but it don't sound bad 
Any comments, e-mail me at caza182@hotmail.com

STANDARD TUNING

Intro

e|--12---------12-12-12----|
b|-------------------------|
g|-------------------------| x4
D|----14-14-14----------14-|
A|-------------------------|
E|-------------------------|


Verse

e|----------|
b|----------|
g|----------|
D|-2-2-2-2--|
A|-2-2-2-2--|
E|-0-0-0-0--|
 pm....... (thats all there is in the verse)

Pre Chorus
[ Tab from: http://www.guitartabs.cc/tabs/p/pink/cuz_i_can_tab.html ]
e|---------------------------------------------------|
b|---------------------------------------------------|
g|-5-5-5-5--7-7-7-7--0-0-0-0-0-0-0-0-----------------| x2
D|-5-5-5-5--7-7-7-7--2-2-2-2-2-2-2-2-----------------|
A|-3-3-3-3--5-5-5-5--2-2-2-2-2-2-2-2-----------------|
E|---------------------------------------------------|
 pm.................................

Chorus

e|-----------------------------------|
b|-----------------------------------|
g|-5-5-5-5--7-7-7-7--0-0-0-0-0-0-0-0-| x3
D|-5-5-5-5--7-7-7-7--2-2-2-2-2-2-2-2-|
A|-3-3-3-3--5-5-5-5--2-2-2-2-2-2-2-2-|
E|-----------------------------------|

                  |-------------------|
on 4th time play  |-------------------|
                  |---9-9-9-9-9-9-9-9-|
                  |---9-9-9-9-9-9-9-9-|
                  |---7-7-7-7-7-7-7-7-|
                  |-------------------|

Then play,

Verse
Pre Chorus
Chorus

Then play verse 12 times

Then Chorus 2 times

And thats it!!!
Comments