Pinhead Gunpowder - Crazyhorse Chords & Tabs

 

Crazyhorse Chords & Tabs

Pinhead Gunpowder Chords & Tabs

Version: 1 Type: Tab

Crazyhorse Tab

-------------------------------------------------------------------------------
			     Crazyhorse ¡V Pinhead Gunpowder
-------------------------------------------------------------------------------

Tabbed by: Lee Debenham
Email:lee_debo@fsmail.net

Tuning:Standard

(sorry if lyrics aren¡¦t accurate but you get an idea where you are in the song)

Intro:


A minor (slowly strum this chord once)
e|------------------------------------------------------------------------------|
B|---------1--------------------------------------------------------------------|
G|---------2--------------------------------------------------------------------|
D|---------2--------------------------------------------------------------------|
A|---------0--------------------------------------------------------------------|
E|------------------------------------------------------------------------------|

Verse (same for all verses)
e|------------------------------------------------------|
B|------------------------------------------------------|
G|-------------------9-----------------3-------------9--|
D|---------3---------9-----------------3-------------9--|
A|---------3~--------7-----------------5-------------7--|
E|---------5--------------------------------------------|  x1
 x6                x6--|             x6
Digging with a ¡K¡K¡K¡K¡Kmischievous grin¡K¡Kstaring¡K¡KShe drew me in
[ Tab from: http://www.guitartabs.cc/tabs/p/pinhead_gunpowder/crazyhorse_tab.html ]
Verse (second time note the first chord is played 6 times instead of 1)
e|------------------------------------------------------|
B|------------------------------------------------------|
G|-------------------9-----------------3-------------9--|
D|---------3---------9-----------------3-------------9--|
A|---------3~--------7-----------------5-------------7--|
E|---------5--------------------------------------------|  x6
 x6                x6--|             x6

Play until chorus
Chorus:
e|-----------------------------------------------------------------------------------|
B|-----------------------------------------------------------------------------------|
G|-------7------9--------------------------------------------------------------------|
D|-------7 ~----9 ~------------------------------------------------------------------|
A|-------5------7--------------------------------------------------------------------|
E|-----------------------------------------------------------------------------------|
You just kissed¡KCrazy Horse¡¦s girl¡K

After chorus:

e|-----------------------------------------------------------------------------------|
B|-----------------------------------------------------------------------------------|
G|-----------------------------------------------------------------------------------|
D|--------7-----5-----2--------------------------------------------------------------|
A|--------7-----5-----2--------------------------------------------------------------|
E|--------5-----3-----0---------------------------------------------------------|x6--|   x6
  x12--|

       ¡KFriend


Thanks any questions just e-mail me ļ