Pinhead Gunpowder - Beastly Bit Chords & Tabs

 

Beastly Bit Chords & Tabs

Pinhead Gunpowder Chords & Tabs

Version: 1 Type: Tab 0 ratings
1 star 2 stars 3 stars 4 stars 5 stars
comments

Beastly Bit Tab

   
"Beastly Bit"
Pinhead Gunpowder
Jump Salty
tabbed by Daaaaaaavid
daaaaaaavid@hotmail.com

Chords:

   A5  E5  E5  Gb5 Db5 D5  G5
           II
e|---------------------------|
B|---------------------------|
G|-----9-----------6---7-----|
D|-7---9---2---4---6---7---5-|
A|-7---7---2---4---4---5---5-|
E|-5-------0---2-----------3-|

Intro:

Guitars 1 & 2

A5-E5

A5
   When you're just a sickly mess

Bored and tired and you're scared to death
         E5
Well you     you can come to me

And we can share the disease

And talk and roll around the debris, yeah

A5

A5                 E5(II)
   It's easy to be disappointed
Gb5                        Db5
    When you got such high expectations
D5                  A5            E5
   And things don't always go the way you planned
G5  A5                             E5(II)
       You say you're sorry you're so stressed out
Gb5                      Db5
    But I don't mind you being depressed now
D5        A5            E5
   I mean I will try to understand

(one guitar plays chords above tablature,
 other guitar plays tablature)

    G5      A5
[ Tab from: http://www.guitartabs.cc/tabs/p/pinhead_gunpowder/beastly_bit_tab.html ]
e|--------|-5-5-3-3-5-5-4-4-|
B|--------|-2-2-0-0-2-2-5-5-|
G|--------|-2-2-0-0-2-2-4-4-|
D|--5-5-5-|-----------------|
A|--5-5-5-|-----------------|
E|--3-3-3-|-----------------|
          |_________________|
               |
            repeat this part
             four times

E5

A5-E5

A5
   Take me back to the overpass

We'll build a home in the broken glass
        E5
And you     you can cover me

And color what I see

And together we can rest in peace, yeah

A5

A5                 E5(II)
   I don't know my destination
Gb5                         Db5
    Just know that life's a celebration
D5             A5          E5
   No time for fear or hesitation now
G5 A5                 E5(II)
      Sometimes I get lost and lonely
Gb5                     Db5
    But I could use you here beside me
D5            A5               E5
   To help to guide me help me find my way
        D5  E5
And you        my green haired

    A5
    girl
e|-/5-5-5/7-5-4--------|
B|--------------5/7----|
G|------------------6~-|
D|---------------------|
A|---------------------|
E|---------------------|

D5        E5
   You my    green haired

    A5  G5  D5  Db5 A5
    girl
e|---------------------|
B|---------------------|
G|----------7---6------|
D|-/7---5-----------7~-|
A|---------------------|
E|---------------------|
Comments