Pinhead Gunpowder - Achin To Be Chords & Tabs

 

Achin To Be Chords & Tabs

Pinhead Gunpowder Chords & Tabs

Version: 2 Type: Tab 0 ratings
1 star 2 stars 3 stars 4 stars 5 stars
comments

Achin To Be Tab

Pinhead Gunpowder
"Achin' To Be" off of the Shoot the Moon e.p.
Tabbed by Cash Mahoy dds


Intro:
Gtr 1
E-------------------------------------------------|
B-------------------------------------------------|
G--7-7-7-7-7--------------------------------------|
D--7-7-7-7-7-4-4-4-4-4-5-5-5-5-5-5-5-5-5-5--------|
A--5-5-5-5-5-4-4-4-4-4-5-5-5-5-5-5-5-5-5-5--------|
E------------2-2-2-2-2-3-3-3-3-3-3-3-3-3-3--------|

Gtr2
E--------------------------------------------------|
B--------------------------------------------------|
G--7-7-7-7-7---------------------------------------|
D--7-7-7-7-7-4-4-4-4-4-5-5-5-5-5-----2-0-----------|
A--5-5-5-5-5-4-4-4-4-4-5-5-5-5-5-0-2---------------|
E------------2-2-2-2-2-3-3-3-3-3-------------------|
[ Tab from: http://www.guitartabs.cc/tabs/p/pinhead_gunpowder/achin_to_be_tab_ver_2.html ]
verse (1st 2 times palm-muted):
E--------------------------------------------------|
B--------------------------------------------------|
G--7-7-7-7-7---------------------7-7-7-7-7---------|
D--7-7-7-7-7-4-4-4-4-4-5-5-5-5-5-7-7-7-7-7---------|
A--5-5-5-5-5-4-4-4-4-4-5-5-5-5-5-5-5-5-5-5---------|
E------------2-2-2-2-2-3-3-3-3-3-------------------|

chorus:
E--------------------------------------------------|
B--------------------------------------------------|
G--------------------------------------------------|
D--4-4-4-4-4-5-5-5-5-5-4-4-4-4-4-9-9-9-9-9---------|
A--4-4-4-4-4-5-5-5-5-5-4-4-4-4-4-9-9-9-9-9---------|
E--2-2-2-2-2-3-3-3-3-3-2-2-2-2-2-7-7-7-7-7---------|

E--------------------------------------------------|
B--------------------------------------------------|
G--------------------------------------------------|
D-4-4-4-4-4-9-9-9-9-9------------------------------|
A-4-4-4-4-4-9-9-9-9-9------------------------------|
E-2-2-2-2-2-7-7-7-7-7------------------------------|

-brainstew12@aol.com
Comments