Pineapple Chunks - Song 1 Part A Chords & Tabs

 

Song 1 Part A Chords & Tabs

Pineapple Chunks Chords & Tabs

Version: 1 Type: Tab 0 ratings
1 star 2 stars 3 stars 4 stars 5 stars
comments

Song 1 Part A Tab

This is the first part of song 1 by a really cool band called 
"Pineapple Chunks"
Standard Tuning
enjoy

This part is by the rhythm guitarist-

--------------------------------------------------------------
--------------------------------------------------------------
--------------------------------------------------------------
3--3--3--3--5-5--3--3--3---5-4--3--3--3--3--5-5--3---3---2---2
3--3--3--3--5-5--3--3--3---5-4--3--3--3--3--5-5--3---3---2---2
3--3--3--3--5-5--3--3--3---5-4--3--3--3--3--5-5--3---3---2---2
[ Tab from: http://www.guitartabs.cc/tabs/p/pineapple_chunks/song_1_part_a_tab.html ]
meanwhile the lead guitarist plays

--------------------------------------------------------------
--------------------------------------------------------------
--------------------------------------------------------------
5--5--5--5-7-7--5--5--5---7--6--5--5--5--5-7-7--5---5---4---4
4--4--4--4-6-6--4--4--4---6--5--4--4--4--4-6-6--4---4---3---3
2--2--2--2-4-4--2--2--2---4--3--2--2--2--2-4-4--2---2---1---1

both have the same rhythm but the rhythm part should be pressed 
on each note.
Any probs, email me on nickadams102@hotmail.com
Comments