Pinchi Gringos - Natural Born Hippie Chords & Tabs

 

Natural Born Hippie Chords & Tabs

Pinchi Gringos Chords & Tabs

Version: 1 Type: Bass Tab 0 ratings
1 star 2 stars 3 stars 4 stars 5 stars
comments

Natural Born Hippie Bass Tab

band: PINCHI GRINGOS 
song: NATURAL BORN HIPPIE 




INTRO: 
G:----------------------------------------------------------7------5---3---2-
D:--------4--------------6--------------4-------------7--------5-----3---2---0-0-0-0
A:--5-5------5-5-5--7-7-----7-7-7--5-5-----5-5-5-----------------
E:---------------------------------------------------------------


VERSE: 
[ Tab from: http://www.guitartabs.cc/tabs/p/pinchi_gringos/natural_born_hippie_btab.html ]
G:---------------------------------7--5----------------------- 
D:-------4-5-6----------6-7-8--------------5------------------ 
A:--5------------7-------------------------------5--3-0-3-3-5- 
E:------------------------------------------------------------ 





CHORUS: 

G:------------------------------------7--6----- 
D:------------4-4-4-------------6-------------- 
A:---5-5-5-------------7-7-7------------------- 
E:--------------------------------------------- 


--------------------------------------6--7------ 
-------------4-4-4------------6----------------- 
---5-5-5--------------7-7-7--------------------- 
------------------------------------------------
Comments