Pinback - 3x0 Chords & Tabs

 

3x0 Chords & Tabs

Pinback Chords & Tabs

Version: 1 Type: Tab 1 rating
1 star 2 stars 3 stars 4 stars 5 stars
comments

3x0 Tab

Song Title: 3X0
Band Name: Pinback
Album: Summer in Abaddon
Tabbed By: Casey C.

*************************************
    

	Tuning: CGCGBe  - Drop E down 2 steps to C, A down 1 step to G, and D down 1 step to C.


*************************************

  Main Riff - Plays throughout most of song.

e -----------------------------------------------------------------
B -----------------------------------------------------------------
G -----------------------------------------------------------------
C ----2/4---2---5-------------7/5------2/4---2---5-------------2h0-
G --0-----3---3-----2---5---2--------0-----3---3-----2---5---2-----
C 0---------------2---2---5--------0---------------2---2---5-------


 Riff 2 - This layers the main riff and synchronizes with the vocals at the end.  
[ Tab from: http://www.guitartabs.cc/tabs/p/pinback/3x0_tab.html ]
e -------------------------|---------------------------------
B 5---3---6---8/5---3---6--|-8-6-5------------8-6-5----------
G -------------------------|------7-5-7-10----------7-5-7-10-
C -------------------------|---------------------------------
G -------------------------|---------------------------------
C -------------------------|---------------------------------
                            ("Your sentry men fall behind...")

***************************************

  Outro Riff - Tabbed for guitar - Let the '0's ring to give it a fuller feeling.

e 0---------------0---------------
B 5---5---5-------5---5---8-6-5-3-
G --5---5---5-4-5---5---5---0-----
C ------------0-------------------
G --------------------------------
C --------------------------------

  Riff 4 - Tabbed for guitar - Synchronizes with lyrics and is probably the most recognizable part.

e 15~-----13-15-13-12-13-12-10/12/5/-8-
B -------------------------------------
G -------------------------------------
C -------------------------------------
G -------------------------------------
C -------------------------------------


  Riff 5 - You can hear this come in after the outro plays a while, this ends the song fading out.

e -------0---3-0-
B -----5---------
G ---0----------- 
C ---------4-----
G -5-------------
C (0)-----------

***************************************
Guitar KEY:      / - slide up or down
                 h - hammer-on
                () - hit that note sometimes


***************************************

Great song with an awesome outro, enjoy.

Comments