Pinana Antonio - Pinana Chords & Tabs

 

Pinana Chords & Tabs

Pinana Antonio Chords & Tabs

Version: 1 Type: Tab 0 ratings
1 star 2 stars 3 stars 4 stars 5 stars
comments

Pinana Tab

#----------------------------------PLEASE NOTE--------------------------------#
#This file is the author's own work and represents their interpretation of the#
#song. You may only use this file for private study, scholarship, or research.#
#-----------------------------------------------------------------------------#

Date: Wed, 27 May 1998 00:26:53 +0200
From: Dragontours 
Subject: p/pinana_antonio/pinana.tab

27/05/98

Tabulado para GUITARRA ANTONIO PINANA: Munequita
(Copia de un manuscrito original por Antonio P.)
Transcrito por James C.
email: mailto:loscorteses@mailcity.com

e |----0--2--3-----5-----7------7--8--0--2-----2--0--2---3-----7--8--|
B |-3----------0-----0-----0---------------1---------------0---------|
G |-------------0-----0-----0---------------2---------------0--------|
D |----------0-----0-----0---------------0---------------0-----------|
A |------------------------------------------------------------------|
E |------------------------------------------------------------------|
[ Tab from: http://www.guitartabs.cc/tabs/p/pinana_antonio/pinana_tab.html ]
e |-9--10----10--9--8--7----7--8--0--2----2--0--2--3----4--5--6------|
B |------0--------------0-------------1-------------0----------------|
G |-------0--------------0-------------2-------------0---------------|
D |-----0--------------0-------------0-------------0-----------------|
A |------------------------------------------------------------------|
E |------------------------------------------------------------------|

e |-7----5----3----7--8--9--10----8----7----7--8--0------------------|
B |--4----4----0--------------7----7----0----------------------------|
G |---4----4----0--------------7----7----0---------------------------|
D |-4----4----0--------------7----7----0-----------------------------|
A |------------------------------------------------------------------|
E |------------------------------------------------------------------|

e |-2----2--0--2--3----3--2--1--2----2----2--0--2--3----3--2--1------|
B |--1-------------0-------------1----1-------------0----------------|
G |---2-------------0-------------2----2-------------0---------------|
D |-0-------------0-------------0----0-------------0-----------------|
A |------------------------------------------------------------------|
E |------------------------------------------------------------------|

e |-0----0----2----2----2--0--2--3----3--|---------------------------|
B |--1----1----1----1-------------0---0--|---------------------------|
G |---0----0----2----2-------------0--0--|---------------------------|
D |-----------0----0-------------0-------|---------------------------|
A |-3----3-------------------------------|---------------------------|
E |-----------------------------------3--|---------------------------|
Comments