Pimps - Rocket Science Chords & Tabs

 

Rocket Science Chords & Tabs

Pimps Chords & Tabs

Version: 1 Type: Tab 0 ratings
1 star 2 stars 3 stars 4 stars 5 stars
comments

Rocket Science Tab

this is pretty easy. its basically the same thing, just palm muted and stuff.
i didn't figure out the solo part, but it can't be too hard

intro

e|-----------------------------------------------------------------
B|-----------------------------------------------------------------
G|--9-9-9-9-9-9----------------------------------------------------
D|--9-9-9-9-9-9----------repeat a few times------------------------
A|--7-7-7-7-7-7----------------------------------------------------
E|-----------------------------------------------------------------
[ Tab from: http://www.guitartabs.cc/tabs/p/pimps/rocket_science_tab.html ]
e|-----------------------------------------------------------------
B|-----------------------------------------------------------------
D|--9-9-9-9-9-9----------------------------------------------------
G|--9-9-9-9-9-9---7-7-8-8-9-9--------do that a few times-----------
A|--7-7-7-7-7-7---7-7-8-8-9-9--------------------------------------
E|----------------5-5-6-6-7-7--------------------------------------

e|-----------------------------------------------------------------
B|-----------------------------------------------------------------
G|-----------------------------------------------------------------
D|--------------------------------do this palm muted---------------
A|--7-7-7-7-7-7----------------------------------------------------
E|--------------5-5-6-6-7-7----------------------------------------

besides the solo (which is very short) thats it. over and over. have fun-hope
it helped. if you have any problems or corrections email me @ phatskater88@msn.com
Comments