Pimps - Bitch Slap Boogie Chords & Tabs

 

Bitch Slap Boogie Chords & Tabs

Pimps Chords & Tabs

Version: 1 Type: Bass Tab 0 ratings
1 star 2 stars 3 stars 4 stars 5 stars
comments

Bitch Slap Boogie Bass Tab

title: bitch slap boogie
artist: the pimps 
tabed by: yury lizunov contact me at pimpbassist@hotmail.com            hompage @ http://members.tripod.com/~pimpbassist

                  BITCH SLAP BOOGIE

        RIFF1:
        A-0-3-5-----------0-3-5-------            
        E-------4-3-0-35------4-3-0-3-

        Chorus:
        G----------------------------------RRR
        D-03-035-03-035-03-035-------------EEE
        A----------------------0h1-oh1-oh1-SSS
        E----------------------------------TTT

        RIFF2:
        A-0-3-5-----------0-5-7---------        
        E-------4-3-0-35--------6-5-0-5-     
[ Tab from: http://www.guitartabs.cc/tabs/p/pimps/bitch_slap_boogie_btab.html ]
        RIFF3:
        A-0-5-7-----------0-5-7---------         
        E-------6-5-0-5-7-------6-5-0-5-

        RIFF4:
        A-0-7-9-----------0-7-9---------        
        E-------8-7-0-7-9-------8-7-0-7-

        RIFF5:
        A-0-9-11-------------0-9-11---------
        E--------10-9-0-9-11--------10-9-0-9
        
        RIFF6:
        A-0-5-7-----------0-3-5---------
        E-------6-5-0-5-7-------4-3-0-3-

        LAYOUT:
        RIFF1   X4
        CHORUS  X1
        RIFF2   X6
        RIFF3   X2
        RIFF4   X2
        RIFF5   X2
        RIFF6   X1
        CHORUS  X1
        DRUM SOLO
        RIFF1   X4
        CHORUS  X1
        RIFF2   X6
        RIFF3   X2
        RIFF4   X2
        RIFF5   X2
        RIFF6   X1
        CHORUS  X3
        
Comments