Pimpadelic - Perpetraitor Chords & Tabs

 

Perpetraitor Chords & Tabs

Pimpadelic Chords & Tabs

Version: 1 Type: Tab

Perpetraitor Tab

*- ring out

intro
e-------2--------------------
b---------2--3*--------------
g----------------------------
D----------------------------
A---------------2*---4*------
E--2-------------------5*----
[ Tab from: http://www.guitartabs.cc/tabs/p/pimpadelic/perpetraitor_tab.html ]
everybody get off our backs....
e----------------------------
b----------------------------
g----------------------------
D----------------------------
A-44444\7-2222-9-7-----------
E-22222\5-0000-7-5-----------




*BASS TABS*
G---------------------------
D---4-----------------------
A-----4-5*---2*--4*---------
E--2----------------5*------