Pillows - White Ash Chords & Tabs

 

White Ash Chords & Tabs

Pillows Chords & Tabs

Version: 1 Type: Tab 0 ratings
1 star 2 stars 3 stars 4 stars 5 stars
comments

White Ash Tab

   
This song is pretty simplistic, almost the same riff over and over again.
Doesn't mean it sucks, though! It's pretty f'n great!

KEY:
\ slide down
/ slide up
p pull-off
h hammer-on
~ vibrato

[ Tab from: http://www.guitartabs.cc/tabs/p/pillows/white_ash_tab.html ]
Intro: (x2)
E:---------------------------------------------------------|
B:---------------------------------------------------------|
G:-2\-------------2\---------2\----------------------------|
D:-2\-------------2\---------2\----------------------------|
A:-0----------3---0----------0---------12\0--7--0-6-0--5~--|
E:---------------------------------------------------------|

Main Riff: (Verse/Chorus) (x12)
E:-------------------------------------------|
B:-------------------------------------------|
G:-------------------------------------------|
D:----7--5-----------------------------------|
A:-0--------7--5--3--6--5--3p0--0------------|
E:-------------------------------------------|

Pre-Chorus: (post verse?) (x1)
D5, F5, D5, F5, D5, F5, C5, B5, Bb5, A5

Then the main riff all over again! Easy as pieeee...
Comments