Pillows - Wake Up Frenzy Chords & Tabs

 

Wake Up Frenzy Chords & Tabs

Pillows Chords & Tabs

Version: 1 Type: Tab 0 ratings
1 star 2 stars 3 stars 4 stars 5 stars
comments

Wake Up Frenzy Tab

        WAKE UP FRENZY!
by Jeremy 

OK so no one tabbed it so i decided to tab this great
Pillows song

Verse/Intro

e|-----------------------------0|
b|----------------2------------2|
g|----------------2------------2|
d|---4------------0-------------|
a|---4--------------------------|
e|---2--------------------------|
    x4          x4           x6

Mid Verse thing

e|----------0|
b|---5----- 3|
g|---6----- 2|
d|---6-------|
a|---4-------|
e|-----------|

e|--------------------------0-----|
b|--------------------------3-----|
g|---4--------------4-------2-----|
d|---4------ 4------4------------2|
a|---2------ 4------2------------2|
e|-----------2-------------------0|
   x6       x2    x4       x4  x4
[ Tab from: http://www.guitartabs.cc/tabs/p/pillows/wake_up_frenzy_tab.html ]
Chorus
e|--------------------------------0---------------------|
b|--------------------------------3--------------2-----5|
g|2-------------------------------2--------------2-----5|
d|2------2-------4------3---------------2--------0-----3|
a|0------2-------4------3---------------2---------------|
e|-------0-------2------1---------------0---------------|
 x4    x4      x4     x4        x4    x4       x4
          x4
Chorus cont.
e------------------------------------0------------|
b|-----------------------------------3------------|
g|---2-------------------------------2------------|
d|---2------2-------4------3---------------2------|
a|---0------2-------4------3---------------2------|
e|----------0-------2------1---------------0------|
   x4     x4      x4     x4        x4    x4

Solo
e|------------------0----- |
b|------------------3----- |
g|------------------2----- |
d|---4------3-------------2|
a|---4------3-------------2|
e|---2------1-------------0|
   x2     x2      x2     x2
        im not sure if this is right but i think its
close
e|-----------------------0|
b|-----------------------3|
g|----------2------5-----2|
d|---3------2------5------|
a|---3------0------3------|
e|---1--------------------|

End Chorus

its the same as the Chorus but at the end add

e|-----------------0|
b|-----------------3|
g|---2------5------2|
d|---2------5-------|
a|---0------3-------|
e|------------------|
  x16     x8     x8

Order:
Verse X 12
Mid Verse
Chorus
Verse X 12
Mid Verse
Chorus
Solo
Chorus
End Chorus
Verse X 4

This is my first tab if you have any corrections or
comments please Email me at Airsoftnaota941@yahoo.com
Comments