Pillows - Thank You My Twilight Chords & Tabs

 

Thank You My Twilight Chords & Tabs

Pillows Chords & Tabs

Version: 1 Type: Tab 0 ratings
1 star 2 stars 3 stars 4 stars 5 stars
comments

Thank You My Twilight Tab

#----------------------------------PLEASE NOTE---------------------------------#
#This file is the author's own work and represents their interpretation of the #
#song. You may only use this file for private study, scholarship, or research. #
#------------------------------------------------------------------------------#

THANK YOU MY TWILIGHT
As recorded by The Pillows



Transcribed by Frodulent

 



Keyboard Intro					Main chords
|-8-5-----5------------------------6-5-------|-1--5--6--6--|--|
|-----8-6----5-6-5-----5-6----6--8-----8-6-8-|-1--5--6--6--|--|
|------------------6-7------7----------------|-2--6--7--6--|--|
|--------------------------------------------|-3--7--8--8--|--|
|--------------------------------------------|-3--7--8--8--|--|
|--------------------------------------------|-1--5--6--6--|--|


Bridge		Chorus
		play C chord as that quick transition chord
					Ascending part, you'll have to figure out
					the timing
|-3--------1-|-------1--0-----1--------1--0-------------------|
|-3--5--3--1-|-1-1-0-3--1--3--1--1-1-0-3--1--3----------------|
|-3--5--3--2-|-0-0-0-2--2--3--2--0-0-0-2--2--3--9--10--12--13-|
|-5--5--3--3-|-2-2-0-0--2--3--3--2-2-0-0--2--3----------------|
|-5--3--1--3-|-3-3-0----0--1--3--3-3-0----0--1--7---8--10--11-|
|-3--------1-|----------------1-------------------------------|

Clean part during the verse is either twinklings of these chords,
or of the chords listed as Main up above 

|-5--5--6--6----|
|-6--5--6--6----|
|-5--6--7--6----|
|-3-------------|
|---------------|
|---------------|


 Solo
[ Tab from: http://www.guitartabs.cc/tabs/p/pillows/thank_you_my_twilight_tab.html ]
  Gtr I
      ~~~~        ~~~~                ~             ~
|---------------------------------------------------------------------------|
|---------------------------------------------------------------------------|
|-----2b3r==2-----2b3r=2----2b3--2pb3r2-0---0-------------------------------|
|-----------------------------------------3---5S7-7-7-------------2-3h5-----|
|--------------------------------------------------------------/5-------3S5-|
|-1-1-----------1----------------------------------------13\----------------|


  ~                       ~~~             ~                  ~
|---------------------------------------------------------------------|
|---------------------------------------------------------------------|
|---------------------------------------------------------------------|
|---------------------------------------------------------------------|
|-5-----3-3-3-3-2-2-2-2-0----------0----------------------1--3---3h5--|
|-------------------------3b5--------3b5r=3--1-0-1--3--5--------------|


    ~            ~
|------------------------------------------------------------------------------|
|-----------------------------------------------10-10-10-10-10p8-8-8-8\-6-6\-5-|
|--------------------/5-5-5-5\-3-3-3-3\-2-2-2\---------------------------------|
|-3-3--3-5-3-5S7-7-------------------------------------------------------------|
|------------------------------------------------------------------------------|
|------------------------------------------------------------------------------|


   ~~                ~~                        ~~
|---------------------------------------------------|
|-/8---8-6-8-6--/10-10--8--10--10S11--10--/8--------|
|-/9---9-7-9-7--/10-10--9--10--10S12--10--/9--10----|
|---------------------------------------------10----|
|---------------------------------------------------|
|---------------------------------------------------|
Comments