Pillows - Super Trampoline School Kid Chords & Tabs

 

Super Trampoline School Kid Chords & Tabs

Pillows Chords & Tabs

Version: 1 Type: Tab 0 ratings
1 star 2 stars 3 stars 4 stars 5 stars
comments

Super Trampoline School Kid Tab

#----------------------------------PLEASE NOTE---------------------------------#
#This file is the author's own work and represents their interpretation of the #
#song. You may only use this file for private study, scholarship, or research. #
#------------------------------------------------------------------------------#

SUPER TRAMPOLINE SCHOOL KID
As recorded by The Pillows



Transcribed by Frolic

 
I tabbed this one out real quick so let me know if something doesn't sound
right.

 Intro, second guitar does a big old E chord 

  Gtr I
|------------------------------------------------------------------|
|------------------------------------------------------------------|
|------------------------------------------------------------------|
|------------------------------------------------------------------|
|-2-x-4-x-------------2------2-----2-4-2----2-2-2-2--2-x-4-x-------|
|-0-x-----4-x-x-3-3h4----3h4---3h4--------4----------0-x-----4-x-x-|


|-----------------------------|-------------------------------------|
|-----------------------------|-------------------------------------|
|-----------------------------|-------------------------------------|
|-----------------2----6--6-6-|-------------------------------------|
|-------2---------2---/7--7-7-|--4-2-4--7-6-7--9--9--9--5-5-4-4-2-2-|
|-3-3h4-----2b3r2-0-----------|--2-0-2--5-4-5--7--7--7--------------|


Soloey thing
[ Tab from: http://www.guitartabs.cc/tabs/p/pillows/super_trampoline_school_kid_tab.html ]
    ~                                                         ~
|-------------------------------------------------------------------------------|
|-------------------------------------------------------------------------------|
|-9-9--9-8-9-11--11-11--------------8-9-8--11-11-11-8---------9-9--9-8-9-11--11-|
|----------------------9---/11-11-11-------------------11-9---------------------|
|-------------------------------------------------------------------------------|
|-------------------------------------------------------------------------------|


|-----------------------------------------------------------------------------|
|--------------------------------------------------------------------7-5-7-5--|
|-11-------------/8-9-8--/11\--8-6-8-6-8---6-6-/8-6-8-6-8-6-8----6-6-8-6-8-6--|
|----9--/11-9-11--------------------------------------------------------------|
|-----------------------------------------------------------------------------|
|-----------------------------------------------------------------------------|


|-----------------------------|
|-7-5-7----5-5--4--5--7--9----|
|-8-6-8----6-6--4--6--8--9----|
|-----------------------------|
|-----------------------------|
|-----------------------------|

On the second run through the solo, the end ascending double stops are
interupted after the five/six double stop, where instead of continuing to
seven/eight, you jump up to this double stop and slide it all the way down the
neck.  It is placed where it should be played in reference to the part above.

		    |-16\----|
		    |-17\----|
		    |--------|
	    	    |--------|
		    |--------|
		    |--------|
Comments