Pillows - Strange Chameleon Chords & Tabs

 

Strange Chameleon Chords & Tabs

Pillows Chords & Tabs

Version: 1 Type: Tab 0 ratings
1 star 2 stars 3 stars 4 stars 5 stars
comments

Strange Chameleon Tab

Strange Chameleon

tabbed by orenjitousutaa/mommy/Dizzid


Intro

el-7-7--7-7-8-7-8-10-8-7-7-7-------------|
Bl-8-8--8-8-8-8-8-8--8-7-7-7----8--10----|
Gl-7-7--7-7-7-7-7-7--7-7-7-7----9--11----|
Dl---------------------------------------|
Al---------------------------------------|
El---------------------------------------|

el-7-7--7-7-8-7-8-10-8-7---------14--------15--|
Bl-8-8--8-8-8-8-8-8--8-7-----------------------|
Gl-7-7--7-7-7-7-7-7--7-7---14/16-----16/17-----|
Dl---------------------------------------------|
Al---------------------------------------------|
El---------------------------------------------|

Verse 1

el-7--10--8--7----------------------|
Bl-8--8---8--7-----8--10------------|
Gl-7--7---7--7-----9--11------------|
Dl----------------------------------|
Al----------------------------------|

el-7--10--8--7---8-8-7-----------|
Bl-8--8---8--7---------8---------|
Gl-7--7---7--7-----------7-------|
Dl-------------------------------|
Al-------------------------------|
El-------------------------------|
El-------------------------------|

el-7--10--8--7---------14--------15----|
Bl-8--8---8--7-------------------------|
Gl-7--7---7--7---14/16-----16/17-------|
Dl-------------------------------------|
Al-------------------------------------|
El-------------------------------------|

Verse 2

el----------7-----10-----2-----------------10---|
Bl------8---------8------3----------10-----10---|
Gl-/9-9---9---9----------2---/11-11----11-------|
Dl-----------------------0----------------------|
Al----------------------------------------------|
El----------------------------------------------|

el-2---------------------10--|
Bl-0---------------------10--|
Gl-2---9-9--7-7--7---/11-----|
Dl-1---x-x--x-x--x-----------|
Al-2---7-7--5-5--7-----------|
El---------------------------|

el-0-------------9---|
Bl-1---------8-------|
Gl-0----/9-9---9-----|
Dl-2-----------------|
Al-3-----------------|
El-------------------|

el--------------------------------------------|
Bl--------------------------------------------|
Gl-7-7-7-7--9-9-9-9--11-11-11--12--14--16-16--|
Dl-x-x-x-x--x-x-x-x--x--x--x---x---x---x--x---|
Al-5-5-5-5--7-7-7-7--9--9--9---10--12--14-14--|
El--------------------------------------------|

Chorus

el-10---10---10---8---7------10---10---10---8---7------|
Bl-----------------------------------------------------|
Gl----9----9----9---9---9-------7----7----7---7---7----|
Dl-----------------------------------------------------|
Al-----------------------------------------------------|
El-----------------------------------------------------|

el------7-5---7---5-----------------------------|
Bl----7-----8---7-------------------------------|
Gl-/8-----------------9-9--11-11--12-12--16-16--|
Dl--------------------x-x--x--x---x--x---x--x---|
Al--------------------7-7--9--9---10-10--14-14--|
El----------------------------------------------|

el------------------------------------|
Bl------------------------------------|
Gl-12-12-12-12--14--16----14-14-14----|
Dl-x--x--x--x---x---x-----x--x--x-----|
Al-10-10-10-10--12--14----10-10-10----|
El------------------------------------|

el-9--7-9-10-----3---1--2--------------|
Bl-10-9-7-10-----0---1--1--------------|
Gl---------------0---2--2--------------|
Dl---------------0---3--0--------------|
Al---------------2---------------------|
El---------------3---------------------|

Pre-solo

el---------/7-5----------------------------|
Bl-/8-10-8------8-7-5----------------------|
Gl-----------------------------------------|
Dl-----------------------------------------|
Al-----------------------------------------|
El-----------------------------------------|


Solo

el|-15-15-13-12----12----|
Bl|-------------14----12-|
Gl|----------------------|
Dl|----------------------|
Al|----------------------|
El|----------------------|

el|-15-15-12-14-12----------|
Bl|----------------15-13-15-|
Gl|-------------------------|
Dl|-------------------------|
Al|-------------------------|
El|-------------------------|

el|-8-7-5-5-7-7/3-|
Bl|---------------|
Gl|---------------|
Dl|---------------|
Al|---------------|
El|---------------|

el|-------------------|
Bl|-------------------|
Gl|-------------------|
Dl|-------------------|
Al|----------12-12----|
El|-10-12-14-------14-|
[ Tab from: http://www.guitartabs.cc/tabs/p/pillows/strange_chameleon_tab.html ]
el|-------------------|
Bl|----------------12-|
Gl|----------12-14----|
Dl|----12-14----------|
Al|-14----------------|
El|-------------------|

el|-15-13-12-------------------------12----|
Bl|----------15-13-15-12-13-12-14-12----12-|
Gl|----------------------------------------|
Dl|----------------------------------------|
Al|----------------------------------------|
El|----------------------------------------|

el|------3-3---------------|
Bl|-/4-5-----5-4-2-0-4~4-2-|
Gl|------------------------|
Dl|------------------------|
Al|------------------------|
El|------------------------|

el|-------------------------------|
Bl|-------------------------------|
Gl|-------------------------------|
Dl|-----------------------------0-|
Al|---------5-------------0-2-3---|
El|-5-5-7-8---8-7-5-7~7-5---------|

el|--------------------------------|
Bl|--------------------------------|
Gl|--------------------------------|
Dl|-----------------------12-12/14-|
Al|-3-2-0-5-5/12-12-13-17----------|
El|--------------------------------|

el|-----------------------------|
Bl|-----------------------12----|
Gl|--------------11-12-14----14-|
Dl|-----15-12-14----------------|
Al|-14--------------------------|
El|-----------------------------|

el|-----------------------19-12---------|
Bl|-12-15-------12-13-15--------11-11-9-|
Gl|-------12-14-------------------------|
Dl|-------------------------------------|
Al|-------------------------------------|


---------------------------------------------------------------------------
Different Solo

e|--10----10v----10---------------------|
b|--13b15-13b15--13b15-13-12-10-12------|
g|---------------------------------12v--|
d|--------------------------------------|
a|--------------------------------------|
e|--------------------------------------|

e|---------------10--10--10---10---------|
b|---------------13b-13b-13b--13b-13-12--|
g|--s12-12----12-------------------------|
d|--s14----14----------------------------|
a|---------------------------------------|
e|---------------------------------------|

e|------14-----15-----17-----19-15-------15---|
b|--s15-15-s17-17-s19----s20-------14s15------|
g|--------------------------------------------|
d|--------------------------------------------|
a|--------------------------------------------|
e|--------------------------------------------|

e|--14h15-14----------------------------------|
b|-----------15-12-13-13s15-15v---------------|
g|-------------------------------16h17-16-12--|
d|--------------------------------------------|
a|--------------------------------------------|
e|--------------------------------------------|

e|--------------------------------------------|
b|--13s15-15----------------------------------|
g|--14s16-16s12-12v---------------------------|
d|--------------------9-10-10s12--10-9--------|
a|-------------------------------------12-10--|
e|--------------------------------------------|

e|--------------------------------------------|
b|--------------------------------------------|
g|--------------------------------------------|
d|--------------------------------------------|
a|--9h10p9------------------------------------|
e|---------h12--10-12-8-10-7-8-8s10-8-10s12-10|

e|--------------------------------------------|
b|----------------------------------------7-8-|
g|-----------------------------------s7-9-----|
d|----------------------------5-7s9v----------|
a|------------------------5-7-----------------|
e|--0-2-3-3s5-3-5-5s7-5-7---------------------|

e|---------------------12---------------------|
b|--8s10-8-10s12-12v---12-----10h12-10--------|
g|---------------------14b16-----------12-11--|
d|--------------------------------------------|
a|--------------------------------------------|
e|--------------------------------------------|

e|-------------10-12-s19-17-15-14-15-14-------|
b|-------10-12--------------------------15----|
g|--9-12-----------------------------------14-|
d|--------------------------------------------|
a|--------------------------------------------|
e|--------------------------------------------|

e|--------------------------------------------|
b|--------------------------------------------|
g|--12-11-h12-11------------------------------|
d|---------------s14-14v----------------------|
a|--------------------------------------------|
e|--------------------------------------------|
Comments