Pillows - Smile Chords & Tabs

 

Smile Chords & Tabs

Pillows Chords & Tabs

Version: 1 Type: Tab 0 ratings
1 star 2 stars 3 stars 4 stars 5 stars
comments

Smile Tab

The Pillows
Song: Smile
Album: Smile
By: _KeitarO_

                                          FOREVER PILLOWS!

The opening; something like this:
e|-----------------------------
B|--------3--------------------
G|--5--4-----------------------

And then it begins

1st part:
e|---7-7-------------7-7-------10-----------------------8-------------------| Repeat it 1 time
B|-------8-8-------------8-8------8---7---7-8--------10---10--7---5---7-----|     
G|-7---------7-7-4-5---------9------7---9---9----7/9----------7-7---7-------|
D|--------------------------------------------------------------------------|
A|--------------------------------------------------------------------------|
E|--------------------------------------------------------------------------|

e|---7-7-------------7-7-------10-------------------------------------------|
B|-------8-8-------------8-8------8---7---7-8-----7---7-9-------------------|
G|-7---------7-7-4-5---------9------7---9---9---7---9---9-------------------|
D|--------------------------------------------------------------------------|
A|--------------------------------------------------------------------------|
E|--------------------------------------------------------------------------|

e|-8---8---10---8-------------------------------------------------*---------|
B|-x----------------7---7---8---10---10---10---10---10---9---9---9*---7-5---|
G|-9-9---9----9---9-----------------------------------------------*---------|
D|--------------------7---7---7----7----9----9----9----9---9---9--*---7---7-|
A|----------------------------------------------------------------*---------|
E|----------------------------------------------------------------*---------|

Do these three again, this time without repeating when it's ordered to. The *'s won't have effect
when in the first time playing this part.

When doing the second time, what's on the right side of the *'s won't be played. The left side
will be linked to the solo that comes next.


2nd part:
e|----------------------------------------------------------------------------------------------|
B|-----------------------------------------------3----------------------------------------------|
G|------0--2-0-2/4--4--2/4-4-\0--0-2/4--4--4-4-5---0-2h-4-0----0---0---2--2-0---0-----------2-4-|
D|-0-2h-----------------------------------------------------4----4---4--------3---3-2-3-3/5-----|
A|----------------------------------------------------------------------------------------------|
E|----------------------------------------------------------------------------------------------|

e|-------------------------------------2:----3--5--7--10------12----10-10-10-10\8---8--8--8\7-7-7-|
B|-------------------------------------0--3--5--7--0:----7/12----12----12-12-12\10-10-10-10\8-8-8-|
G|------------------------------------------------------------------------------------------------|
D|-5--5--4-5-4-5/12-\5--5--4-5-4-5-14-------------------------------------------------------------|
A|------------------------------------------------------------------------------------------------|
E|------------------------------------------------------------------------------------------------|

e|-7/8--8---8--8\7-7-7-7/10-10-10-10\8---8--8--8\7-7-7-7-7-7----------------7----7-7-7/12***14--|
B|-8/10-10-10-10-8-8-8-8/12-12-12-12\10-10-10-10\8-8-8-8-8-8--------------8---8--8-8------------|
G|----------------------------------------------------------------9--9-9---------9-9------------|
D|--------------------------------------------------------------9-------------------------------|
A|------------------------------------------------------------7---------------------------------|
E|----------------------------------------------------------------------------------------------|

*** -> Go slowly and repeatedly raising from 12 to 14.

3rd part:
e|--------------------------------------------------------------|
B|-11\8-8-8--11\8-8-8--11-11-11-11------------------------------| *Do it 4 times*
G|-12\9-9-9--12\9-9-9---9--9--9--9------------------------------|
D|--------------------------------------------------------------|
A|--------------------------------------------------------------|
E|--------------------------------------------------------------|

e|--------------------------------------------------------------|
B|-****-----8----12----11----12----11--8------------------------| *Do it 4 times*
G|--------9-----9-----9-----9-----9-----------------------------|
D|--------------------------------------------------------------|
A|--------------------------------------------------------------|
E|--------------------------------------------------------------|
**** -> In this part the guitars are really mixed, making it hard to differ them, so I might have
missed something.

e|--------------------------------------------------------------|
B|-8-8--8-8--8-8--11-11-11-11-11-11--8-8--8-8--8-8--8-8-8-8-8-8-| *Do it 2 times*
G|-9-9--9-9--9-9---------------------9-9--9-9--9-9--9-9-9-9-9-9-|
D|--------------------------------------------------------------|
A|--------------------------------------------------------------|
E|--------------------------------------------------------------|

e|--------------------------------------------------------------|
B|-11\8-8-8--11\8-8-8--11-11-11-11------------------------------| *Do it 3 times*
G|-12\9-9-9--12\9-9-9---9--9--9--9------------------------------|
D|--------------------------------------------------------------|
A|--------------------------------------------------------------|
E|--------------------------------------------------------------|

e|--------------------------------------------------------------|
B|--------------------------------------------------------------|
G|--------------------------------------------------------------|
D|-7-7-7-7-7-7-7-7----------------------------------------------|
A|-4-4-4-4-4-4-4-4---5--5--5--5---------------------------------|
E|-5-5-5-5-5-5-5-5---3--0--3--0---------------------------------|

e|--------------------------------------------------------------|
B|-11\8-8-8--11\8-8-8--11-11-11-11------------------------------| *Do it 4 times*
G|-12\9-9-9--12\9-9-9---9--9--9--9------------------------------|
D|--------------------------------------------------------------|
A|--------------------------------------------------------------|
E|--------------------------------------------------------------|
[ Tab from: http://www.guitartabs.cc/tabs/p/pillows/smile_tab.html ]
e|--------------------------------------------------------------|
B|----8----12----11----12----11--8------------------------------| *Do it 4 times*
G|-9-----9-----9-----9-----9------------------------------------|
D|--------------------------------------------------------------|
A|--------------------------------------------------------------|
E|--------------------------------------------------------------|

e|--------------------------------------------------------------|
B|-8-8--8-8--8-8--11-11-11-11-11-11--8-8--8-8--8-8--8-8-8-8-8-8-| *Do it 2 times*
G|-9-9--9-9--9-9--9--9--9--9--9--9---9-9--9-9--9-9--9-9-9-9-9-9-|
D|--------------------------------------------------------------|
A|--------------------------------------------------------------|
E|--------------------------------------------------------------|

e|--------------------------------------------------------------|
B|-11\8-8-8--11\8-8-8--11-11-11-11------------------------------| *Do it 3 times*
G|-12\9-9-9--12\9-9-9---9--9--9--9------------------------------|
D|--------------------------------------------------------------|
A|--------------------------------------------------------------|
E|--------------------------------------------------------------|

e|--------------------------------------------------------------|
B|--------------------------------------------------------------|
G|--------------------------------------------------------------|
D|-7-7-7-7-7-7-7-7---5--5--5--5--5--5--5--5---------------------|
A|-4-4-4-4-4-4-4-4---5--5--5--5--5--5--5--5---------------------|
E|-5-5-5-5-5-5-5-5---3--3--0--3--3--0--3--0---------------------|

e|--------------------------------------------------------------|
B|-11\8-8-8--11\8-8-8--11-11-11-11------------------------------| *Do it 4 times*
G|-12\9-9-9--12\9-9-9---9--9--9--9------------------------------|
D|--------------------------------------------------------------|
A|--------------------------------------------------------------|
E|--------------------------------------------------------------|

e|------------------------------------------------------------------------|
B|------------------------------------------------------------------------|
G|------------------------------------------------------------------------|
D|-7-7-7-5-5-8--x-7-7-7-5-5-8--x-7-7-7-5-5-8--x-7-7--x-x-7--x-x-7-7--x-x--|
A|-7-7-7-5-5-8--x-7-7-7-5-5-8--x-7-7-7-5-5-8--x-7-7--x-x-7--x-x-7-7--x-x--|
E|-5-5-5-3-3-6--x-5-5-5-3-3-6--x-5-5-5-3-3-6--x-5-5--x-x-5--x-x-5-5--x-x--|

e|------------------------------------------------------------------------|
B|------------------------------------------------------------------------|
G|----4--5:----------0----------------2---------------5:---------0--------|
D|-7--4--5:------0-2---5:-----------0---4b5r4-2-0-2-0-5:-----0-2---5:-----|
A|-7--2--3:----3-------5:-------0-2-------------------3:----3------5:-----|
E|-5-------------------3:--3--3------------------------------------3:--3--|

e|-------------------------------------------------------------------------|
B|-------------------------------------------------------------------------|
G|----------------7/9-7-9/11-9---------------------------------------------|
D|----------5/7-5----------------------------------------------------------|
A|--------5----------------------------------------------------------------|
E|-3--5/7------------------------------------------------------------------|


4th part:
e|-------------------------------------------------------------------------|
B|-------------------------------------------------------------------------|
G|----------------------------------------9-9------------------------------|
D|-10--10-5--5-9--9-2--2-10--10-5--5-9--9-9-9------------------------------|
A|-10--10-5--5-9--9-2--2-10--10-5--5-9--9-7-7------------------------------|
E|-8---8--3--3-7--7-0--0-8---8--3--3-7--7----------------------------------|

e|-3-3-3-3-3-3-3-3--3-3-3-3-3-3-3-3--7---7---7---7----------------------|
B|-5-5-5-5-5-5-5-5--3-3-3-3-3-3-3-3--x---x---8---8----------------------|
G|-5-5-5-5-5-5-5-5--4-4-4-4-4-4-4-4--7-4-7-4---9---9--------------------| *Do it 2 times*
D|----------------------------------------------------------------------|
A|----------------------------------------------------------------------|
E|----------------------------------------------------------------------|

e|-3-3-3-3-3-3-3--------------------------------------------------------|
B|-5-5-5-5-4-4-4--7-5---------------------------------------------------|
G|-5-5-5-5-5-5-5--7--7--------------------------------------------------|
D|-5-5-5-5-5-5-5--------------------------------------------------------|
A|-3-3-3-3-3-5-3--------------------------------------------------------|
E|----------------------------------------------------------------------|


5th and last part:
e|---7-7-------------7-7-------10-----------------------8-------------------|
B|-------8-8-------------8-8------8---7---7-8--------10---10--7-5:----------|     
G|-7---------7-7-4-5---------9------7---9---9----7/9----------7:------------|
D|--------------------------------------------------------------------------|
A|--------------------------------------------------------------------------|
E|--------------------------------------------------------------------------|

e|---7-7-------------7-7-------10-------------------------------------------|
B|-------8-8-------------8-8------8---7---7-8-----7---7-9-------------------|
G|-7---------7-7-4-5---------9------7---9---9---7---9---9-------------------|
D|--------------------------------------------------------------------------|
A|--------------------------------------------------------------------------|
E|--------------------------------------------------------------------------|

e|-8---8---10---8-----------------------------------------------------------|
B|-x----------------7---7---8---10------------------------------------------|
G|-9-9---9----9---9---------------------------------------------------------|
D|--------------------7---7---7----7----------------------------------------|
A|--------------------------------------------------------------------------|
E|--------------------------------------------------------------------------|

e|-3-3-3--3-3-3--3-3-3--3-3-3--3-3-3--3-3-3--3------------------------------|
B|-3-3-3--5-5-5--3-3-3--5-5-5--3-3-3--5-5-5--3------------------------------|
G|-4-4-4--5-5-5--4-4-4--5-5-5--4-4-4--5-5-5--4------------------------------|
D|-5-5-5--5-5-5--5-5-5--5-5-5--5-5-5--5-5-5--5------------------------------|
A|-5-5-5--3-3-3--5-5-5--3-3-3--5-5-5--3-3-3--5------------------------------|
E|-3-3-3---------3-3-3---------3-3-3---------3------------------------------|


That'it! This song took me lots of hours! Some parts were really hard to tab, so if anyone discover
any mistake in any part tell me the right way and I'll take a look. By the way, this is one of my
favourite Pillows' songs. I just play this music everyday... hope you like it. Cya


any particular comment?
andre-petro@hotmail.com

03/15/05
Comments