Pillows - Skeleton Liar Chords & Tabs

 

Skeleton Liar Chords & Tabs

Pillows Chords & Tabs

Version: 1 Type: Tab 0 ratings
1 star 2 stars 3 stars 4 stars 5 stars
comments

Skeleton Liar Tab

   
****************************************************
*Band: the pillows                                 *
*Song: Skeleton Liar                               *
*Album: Another Morning, Another Pillows (B-Sides) *
*Release: 2002                                     *
****************************************************
--------------------------------------------
|Tabbed by: NardDude [narddude@hotmail.com]|
|Date: 2003-06-24                          |
--------------------------------------------

Notes:
This is a really cool song that took me a bit to tab out ... well,
mainly the solo. What does this mean? The solo is not perfect.
It's close (I think) but not exact. So if anyone can play the solo
properly and/or can correct certain parts to this tab, please send
me an email. It would be greatly appreciated. THANKS!! ^__^

Rock on!

Symbols:

h  - hammer on
p  - pull off
:  - let ring
/  - slide up
\  - slide down
~  - vibrato
tr - tremello
X  - muted string

---------------------------------

[INTRO]

Play a D chord at the beginning each time you play and let it ring
e --------------------------------|--------------------------------|
b --------------------------------|--------------------------------|
g --------------------------------|--------------------------------|
d --------------------------------|--3/4-4-4-----4-4---4-4-4/7-7-7-| X2
a -4/5-5-5-4-4-5-5-4-5-5-5/7-7-7--|----------7-7-----7-------------|
e --------------------------------|--------------------------------|


[VERSE 1]

e ----------------------------------------------|
b ----------------------------------------------|
g ----------------------------------------------|
d -11/12-12-12-11-11-12-12-11-12-12-12/14-14-14-|
a ----------------------------------------------|
e ----------------------------------------------|

e ----------------------------------------------|
b ----------------------------------------------|
g -10/11-11-11-------11-11----11-11-11/14-14-14-|
d -------------14-14-------14-------------------|
a ----------------------------------------------|
e ----------------------------------------------|

e ----------------------------------------------|
b ----------------------------------------------|
g ----------------------------------------------|
d -11/12-12-12-11-11-12-12-11-12-12-12-12-12----|
a ----------------------------------------------|
e ----------------------------------------------|

e ----------------------------------------------|
b ----------------------------------------------|
g ----------------------------------------------|
d -9-9----9-9-9--9------------------------------|
a -----12----------12-12-9-9----9-12------------|
e ---------------------------12-----------------|

e ----------------------------------------------|
b ----------------------------------------------|
g ----------------------------------------------|
d -11/12-12-12-11-11-12-12-11-12-12-12/14-14-14-|
a ----------------------------------------------|
e ----------------------------------------------|

e ----------------------------------------------|
b ----------------------------------------------|
g -10/11-11-11-------11-11-14-11-11-11/14-14-14-|
d -------------14-14----------------------------|
a ----------------------------------------------|
e ----------------------------------------------|

e ----------------------------------------------|
b ----------------------------------------------|
g -2:-------2:----------------------------------|
d -0:-------0:----------------------------------|
a --------------------2:---2-x-2-x-2-2-2--------|
e --------------------3:---3-x-3-x-3-3-3--------|


[CHORUS]

Play these chords over these riffs

|G d A|
e ---------------|
b -4-5-5-6-6-7-7-|
g ---------------| X2
d ---------------|
a ---------------|
e ---------------|

|G d A|
e ---------------|
b -4b-3----------|
g ---------------|
d ---------------|
a ---------------|
e ---------------|

|G d A Em|
e ---------------|
b -4b-3----------|
g ---------------|
d ---------------|
a ---------------|
e ---------------|

PLAY [INTRO]


[VERSE 2]
[ Tab from: http://www.guitartabs.cc/tabs/p/pillows/skeleton_liar_tab.html ]
e ----------------------------------------------|
b ----------------------------------------------|
g ----------------------------------------------|
d -11/12-12-12-11-11-12-12-11-12-12-12/14-14-14-|
a ----------------------------------------------|
e ----------------------------------------------|

e ----------------------------------------------|
b ----------------------------------------------|
g -10/11-11-11-------11-11----11-11-11/14-14-14-|
d -------------14-14-------14-------------------|
a ----------------------------------------------|
e ----------------------------------------------|

e ----------------------------------------------|
b ----------------------------------------------|
g ----------------------------------------------|
d -11/12-12-12-11-11-12-12-11-12-12-12-12-12----|
a ----------------------------------------------|
e ----------------------------------------------|

e ----------------------------------------------|
b ----------------------------------------------|
g ----------------------------------------------|
d -9-9----9-9-9--9------------------------------|
a -----12----------12-12-9-9----9-12------------|
e ---------------------------12-----------------|

e ----------------------------------------------|
b ----------------------------------------------|
g ----------------------------------------------|
d -11/12-12-12-11-11-12-12-11-12-12-12/14-14-14-|
a ----------------------------------------------|
e ----------------------------------------------|

e ----------------------------------------------|
b ----------------------------------------------|
g -10/11-11-11-------11-11----11-11-11/14-14-14-|
d -------------14-14-------14-------------------|
a ----------------------------------------------|
e ----------------------------------------------|

e ------------------------------------------------|
b ------------------------------------------------|
g -12-------14--------12--12-12-13-13-14-14-15-15-|
d ----12:------12--10-----------------------------|
a ------------------------------------------------|
e ------------------------------------------------|


PLAY [CHORUS]


[SOLO]

e ---------------------------------|------------------------------------|
b ---------------------------------|------------------------5h7p5-------|
g -7b-7p6p4---4--------------------|---------------7b-7p6p4-------7-6---|
d ----------7---7~-----------------|------------------------------------|
a -----------------7-7-8-7-9-7-10--|-7-11-7-9---------------------------|
e ---------------------------------|----------10------------------------|

e ---------------------------------|------------------------------------|
b ---------------------------------|------------------------------------|
g -4-4-5-4-6-4-7-4-6---4-6~------6-|-7-11-7---7---7-11-7---7---7-11-7---|
d -------------------7---------7---|--------7---7--------7---7--------7-|
a ---------------------------5-----|------------------------------------|
e ---------------------------------|------------------------------------|

e ---------------------------------|--9b-10-9-7----9b-10-9-7----7----7--|
b ---------------------------------|------------10-----------10---10----|
g -7-----6-----7-----5/6-6/7-7/8---|------------------------------------|
d ---7-5---7-5---7-5---------------|------------------------------------|
a ---------------------------------|------------------------------------|
e ---------------------------------|------------------------------------|

e -7-7-7-7-10-10-10-10-9-9-10-10---|-11-11-12-12------------------------|
b ---------------------------------|------------------------------------|
g ---------------------------------|------------------------------------|
d ---------------------------------|------------------------------------|
a ---------------------------------|------------------------------------|
e ---------------------------------|------------------------------------|

[OUTRO]
Play these chords over these riffs

|G d A|
e ---------------|
b -4-5-5-6-6-7-7-|
g ---------------| X2
d ---------------|
a ---------------|
e ---------------|

|G d A|
e ---------------|
b -4b-3----------|
g ---------------| X2
d ---------------|
a ---------------|
e ---------------|

|G d A|
e ---------------|
b -4-5-5-6-6-7-7-|
g ---------------| X2
d ---------------|
a ---------------|
e ---------------|

|G d A|
e ---------------|
b ---------------|
g ---/15tr-------|
d -0-------------|
a ---------------|
e ---------------|

|G d A Em|
e ---------------|
b -4b-3----------|
g ---------------|
d ---------------|
a ---------------|
e ---------------|
Comments