Pillows - She Is Perfect Chords & Tabs

 

She Is Perfect Chords & Tabs

Pillows Chords & Tabs

Version: 1 Type: Tab 0 ratings
1 star 2 stars 3 stars 4 stars 5 stars
comments

She Is Perfect Tab

######################################################################
# By: Nick Dobromilsky (Shizoku) #
######################################################################

Song: She Is Perfect
Album: Another Mourning, Another Pillows
Artist: The Pillows

Intro:
e|-----------------|-----------------|-----------------|-----------------|
B|-----------------|-7h8-7h8---------|-----------------|-7h8-7h8---------|
G|-----------------|---------6h7-----|-----------------|---------6h7-----|
D|-----------------|-------------9---|-----------------|-------------9---|
A|-----------------|-----------------|-----------------|-----------------|
E|-----------------|-----------------|-----------------|-----------------|

Verse 1:
e|-----------------|-----------------|-----------------|-----------------|
B|-7h8-7h8---------|-7h8-7h8---------|-7h8-7h8---------|-7h8-7h8---------|
G|---------6h7-----|---------6h7-----|---------6h7-----|---------6h7-----|
D|-------------9---|-------------9---|-------------9---|-------------9---|
A|-----------------|-----------------|-----------------|-----------------|
E|-----------------|-----------------|-----------------|-----------------|

Verse 2:
e|-5---5---5---5---|-5---5---5---5---|-5---5---5---5---|-3---3--3-3-3-3--|
B|-5---5---5---5---|-5---5---5---5---|-5---5---5---5---|-3---3--3-3-3-3--|
G|-6---6---6---6---|-6---6---6---6---|-6---6---6---6---|-4---4--4-4-4-4--|
D|-7---7---7---7---|-7---7---7---7---|-7---7---7---7---|-5---5--5-5-5-5--|
A|-7---7---7---7---|-7---7---7---7---|-7---7---7---7---|-5---5--5-5-5-5--|
E|-5---5---5---5---|-5---5---5---5---|-5---5---5---5---|-3---3--3-3-3-3--|

e|-5---5---5---5---|-5---5---5---5---|-5---5---5---5---|-3---3--3-3-3-3--|
B|-5---5---5---5---|-5---5---5---5---|-5---5---5---5---|-3---3--3-3-3-3--|
G|-6---6---6---6---|-6---6---6---6---|-6---6---6---6---|-4---4--4-4-4-4--|
D|-7---7---7---7---|-7---7---7---7---|-7---7---7---7---|-5---5--5-5-5-5--|
A|-7---7---7---7---|-7---7---7---7---|-7---7---7---7---|-5---5--5-5-5-5--|
E|-5---5---5---5---|-5---5---5---5---|-5---5---5---5---|-3---3--3-3-3-3--|

e|-----------------|
B|-----------------|
G|-----------------|
D|-----------------|
A|-12-9-7-9-9s7----|
E|-----------------|

Chorus:
e|-5---5---5---5---|-3---3---3---3---|-2---2---2---2---|-0---0---0---0---|
B|-5---5---5---5---|-3---3---3---3---|-2---2---2---2---|-0---0---0---0---|
G|-7---7---7---7---|-4---4---4---4---|-2---2---2---2---|-1---1---1---1---|
D|-7---7---7---7---|-5---5---5---5---|-4---4---4---4---|-2---2---2---2---|
A|-5---5---5---5---|-5---5---5---5---|-4---4---4---4---|-2---2---2---2---|
E|-----------------|-3---3---3---3---|-2---2---2---2---|-----------------|

e|-5---5---5---5---|-3---3---3---3---|-2---2---2---2---|-0---0---0---0---|
B|-5---5---5---5---|-3---3---3---3---|-2---2---2---2---|-0---0---0---0---|
G|-7---7---7---7---|-4---4---4---4---|-2---2---2---2---|-1---1---1---1---|
D|-7---7---7---7---|-5---5---5---5---|-4---4---4---4---|-2---2---2---2---|
A|-5---5---5---5---|-5---5---5---5---|-4---4---4---4---|-2---2---2---2---|
E|-----------------|-3---3---3---3---|-2---2---2---2---|-----------------|

e|-2-2-2--0-0--3---|
B|-3-3-3--0-0--3---|
G|-4-4-4--0-0--4---|
D|-4-4-4--2-2--5--:|
A|-2-2-2--2-2--5--:|
E|-------------3---|
[ Tab from: http://www.guitartabs.cc/tabs/p/pillows/she_is_perfect_tab.html ]
Solo:
e|-----------------|-----------------|-----------------|-----------------|
B|-----------------|-----------------|-----------------|-----------------|
G|-----------------|-----------------|-----------------|-----------------|
D|-----------------|-----------------|-----------------|-----------------|
A|---------5-------|-7-------7-------|-9-------9-7s5s4-|-5s7s9s7s9-------|
E|-5---------------|-----------------|-----------------|-----------------|

e|-----------------|-----------------|-----------------|-----------------|
B|-----------------|-----------------|-----------------|-----------------|
G|-----------------|-----------------|-----------------|-----------------|
D|-----------------|-----------------|-----------------|-----------------|
A|-5-------5-------|-7-------7-------|-9-------9-7s12s-|-9s7s5-----------|
E|-----------------|-----------------|-----------------|-----------------|

e|-----------------|-----------------|-----------------|-----------------|
B|-----------------|-----------------|-----------------|-----------------|
G|-----------------|-----------------|-----------------|-----------------|
D|-7---------------|-----------------|-----------------|-----------------|
A|-7----4s--5s--7--|-s9---s12-9-7-9--|-----------------|-----------------|
E|-5---------------|-----------------|-----------------|-----------------|

Chorus:
e|-5---5---5---5---|-3---3---3---3---|-2---2---2---2---|-0---0---0---0---|
B|-5---5---5---5---|-3---3---3---3---|-2---2---2---2---|-0---0---0---0---|
G|-7---7---7---7---|-4---4---4---4---|-2---2---2---2---|-1---1---1---1---|
D|-7---7---7---7---|-5---5---5---5---|-4---4---4---4---|-2---2---2---2---|
A|-5---5---5---5---|-5---5---5---5---|-4---4---4---4---|-2---2---2---2---|
E|-----------------|-3---3---3---3---|-2---2---2---2---|-----------------|

e|-5---5---5---5---|-3---3---3---3---|-2---2---2---2---|-0---0---0---0---|
B|-5---5---5---5---|-3---3---3---3---|-2---2---2---2---|-0---0---0---0---|
G|-7---7---7---7---|-4---4---4---4---|-2---2---2---2---|-1---1---1---1---|
D|-7---7---7---7---|-5---5---5---5---|-4---4---4---4---|-2---2---2---2---|
A|-5---5---5---5---|-5---5---5---5---|-4---4---4---4---|-2---2---2---2---|
E|-----------------|-3---3---3---3---|-2---2---2---2---|-----------------|

e|-2-2-2--0-0--3---|-2-2-2--0-0--3---|-2-2-2--0-0--3---|-2-2-2--0-0--3---|
B|-3-3-3--0-0--3---|-3-3-3--0-0--3---|-3-3-3--0-0--3---|-3-3-3--0-0--3---|
G|-4-4-4--0-0--4---|-4-4-4--0-0--4---|-4-4-4--0-0--4---|-4-4-4--0-0--4---|
D|-4-4-4--2-2--5---|-4-4-4--2-2--5---|-4-4-4--2-2--5---|-4-4-4--2-2--5---|
A|-2-2-2--2-2--5---|-2-2-2--2-2--5---|-2-2-2--2-2--5---|-2-2-2--2-2--5---|
E|-------------3---|-------------3---|-------------3---|-------------3---|

Verse 1:
e|-----------------|-----------------|-----------------|-----------------|
B|-7h8-7h8---------|-7h8-7h8---------|-7h8-7h8---------|-7h8-7h8---------|
G|---------6h7-----|---------6h7-----|---------6h7-----|---------6h7-----|
D|-------------9---|-------------9---|-------------9---|-------------9---|
A|-----------------|-----------------|-----------------|-----------------|
E|-----------------|-----------------|-----------------|-----------------|

e|-7h8-7h8---------|-----------------|
B|---------6h7-----|-----------------|
G|-------------9---|--------9s12-----|
D|-----------------|-----------------|
A|-----------------|-----------------|
E|-----------------|-----------------|
Comments